rock
 
|tablatures   |lyrics   |discussion forums   |more tabs @ XGuitar.com

Bad Religion tabs

Punk Rock Song bass tab

Tab For
 Punk Rock Song 
     of Bad Religion
                  By Carlos Henrique

Verse 1
G -|---------------------------------|-----------------------------|
D -|---------------------------------|-----------------------------|
A -|----4-4-4-4-7-7-7-7-2-2-2--------|-4-4-4-4-7-7-7-7-2-2-2-------|
E -|--------------------------4-4-4--|-----------------------4-4-4-|
Verse 1
G -|---------------------------------|-----------------------------|
D -|---------------------------------|-----------------------------|
A -|--4--4--4-4-7-7-7-7-2-2-2--------|-4-4-4-4-7-7-7-7-2-2-2-------|
E -|--------------------------4-4-4--|-----------------------4-4-4-|
Verse 2
G -|---------------------------------|-----------------------------|
D -|---------------------------------|-----------------------------|
A -|-----------------7-7-7-7-7-7-7---|-2-2-2-2-2-2-2-7-2-----------|
E -|---5-5-5-5-5-5-5-----------------|-----------------------------|
Verse 1
G -|---------------------------------|-----------------------------|
D -|---------------------------------|-----------------------------|
A -|----4-4-4-4-7-7-7-7-2-2-2--------|-4-4-4-4-7-7-7-7-2-2-2-------|
E -|--------------------------4-4-4--|-----------------------4-4-4-|
Verse 2
G -|---------------------------------|-----------------------------|
D -|---------------------------------|-----------------------------|
A -|-----------------7-7-7-7-7-7-7---|-2-2-2-2-2-2-2-7-2-----------|
E -|---5-5-5-5-5-5-5-----------------|-----------------------------|
Chorus 1
G -|---------------------------------|------------------------------|
D -|---------------------------------|------------------------------|
A -|-3-3-3-3-0-0-0-0-0-7-7-7-7-2-2-2-|-3-3-3-3-0-0-0-0-7-7-7-7-2-2-2|
E -|---------------------------------|------------------------------|
Chorus 2
G -|---------------------------------|-----------------------------|
D -|---------------------------------|-----------------------------|
A -|0-0-0-0-0-0-0-0-0-7-7-7-7-7-7-7-7-7-|-2-2-2-2-2-2-2-2-2-2-2-2-2-2-2-2-2-2-|
E -|---------------------------------|-----------------------------|
Chorus 3
G -|---------------------------------|-----------------------------|
D -|---------------------------------|-----------------------------|
A -|-3-3-3-3-0-0-0-0-7-7-7-7-2-2-2---|-----------------------------|
E -|---------------------------------|-----------------------------|

Then you keep going in that order:
Verse 1 
Verse 2
Verse 1
Verse 2
Chorus 1
Chorus 2
Chorus 1 (but slowly)x6
Chorus 1
Chorus 2
  development and support by
dmitry ivanov