rock
 
|tablatures   |lyrics   |discussion forums   |more tabs @ XGuitar.com

Bad Religion tabs

Sanity bass tab

Bass for Bad Religion's "Sanity"

Transcribed by Christoph Borst (mohawk@tamu.edu) October 1992
                               http://tam2000.tamu.edu/~cwb2900/
               Please send me comments, corrections, etc.

Play the figures below in the following sequence:

                PPQQ PQPQ PPPP RSRS T PPQQ PQPQ PPPP RSRS T PPQQ RSRS T

     ~127 bpm; common time; these are almost all eighths.


                    G -------------------------------------------------
Figure P:           D -------------------------------------------------
                    A -0--0--0--0--2--2--2--2--3--3--3--3--5--5--5--5--
                    E -------------------------------------------------


                    G -------5-----------7-----------------------------
Figure Q:           D ----7-----7-----9-----9--------10----------12----
                    A ----------------------------10----10----12----12-
                    E -5-----------7-----------8-----------10----------


                    G -------------------------------------------------
Figure R:           D -------------------------------------------------
                    A -------------------------------------------------
                    E -5--5--5--5--3--3--3--3--1--1--1--1--3-----3-----


                    G -------------------------------------------------
Figure S:           D -------------------------------------------------
                    A -------------------------------------------------
                    E -5--5--5--5--3--3--3--3--1--1--1--1--0-----0-----


                    G -------------------------------------------------
Figure T:           D -------------------------------------------------
                    A -------------------------------------------------
                    E -5--5--5--5--5--5--5--5--3--3--3--3--3-----------



have a nice day -:)
  development and support by
dmitry ivanov