rock
 
|tablatures   |lyrics   |discussion forums   |more tabs @ XGuitar.com

Bad Religion tabs

Sinister Rouge bass tab

Bad Religion
Sinister Rouge
THE EMPIRE STRIKES FIRST
(Out June 8th 2004)
Jay Bentley
Standard Tuning
Tabbed By:lilsk8er777@AOL.com
* = Play until note changes
_____________________________
Intro:------Repeat---------|
G |------------------------|--------------------|
D |------------------------|--------------------|
A |-5*-------1*------------|-5*-6--5*-6-5*-6-5*-|
E |-----5*-------1*---3*---|--------------------|

Verse: Repeat
G |----------------------|
D |----------------------|
A |-5*----------8-7------|
E |-----5*--6*------6-8--|

Chorus:-----Repeat---------|
G |------------------------|------------------|
D |----------------3-3-----|------------------|
A |-5*-7-7-8-----------1-3-|-5*-6-5*-6-5*-6-5*|
E |----------5-6*----------|------------------|

Play Verse
Play Chorus
Play Intro
Play Verse

Last Chorus:
G |------------------------|
D |----------------3-------|
A |-5*-7-7-8----------1--3-|
E |----------5-6*----------|

Outro:--------Repeat---------|---|
G |--------------------------|---|
D |--------------------------|---|
A |-5*--------1*-------------|-5-|
E |------5*---------1*---3*--|---|
END
  development and support by
dmitry ivanov