rock
 
|tablatures   |lyrics   |discussion forums   |more tabs @ XGuitar.com

Bad Religion tabs

Sorrow guitar tab

SORROW - Bad Religion

By: Terry (AFI_Follower3@hotmail.com)

Intro
e|--12--|------------------------------------------------|
B|--12--|------------------------------------------------|
G|------|------------------------------------------------|
D|------|------------------------------------------------|
A|------|-------------3-3-3-3--5-5-5-5-------------------|
E|------|--0h3-3-3-3--------------------3-3-3-3-3-3-3-3--|
         ......................p.m.......................

e|--(12)---------------------------------------------(8)--|
B|--(12)---------------------------------------------(8)--|
G|--------------------------------------------------------|
D|--------------------------------------------------------|
A|-----------------3-3-3-3--7-7-7-7--5-5-5-5-5-5-5-5------|
E|--------3-3-3-3-----------------------------------------|
          ....................pm....................

e|----------------------------------------------(0)--|
B|----------------------------------------------(0)--|
G|---------------------------------------------------|
A|---------------------------------------------------|
D|-----------3-3-3-3--5-5-5-5--7-7-7-7-7-7-7-7-------|
E|--3-3-3-3------------------------------------------|
  .....................p.m......................

Verse
e|-----|----------------------------------------------|
B|-----|----------------------------------------------|
G|-----|----------------------------------------------|
D|-----|-----------5-5-5-5--7-7-7-7-------------------|
A|--2--|--5-5-5-5--3-3-3-3--5-5-5-5--5-5-5-5-5-5-5-5--|
E|--0--|--3-3-3-3--------------------3-3-3-3-3-3-3-3--|

e|----------------------------------------------|
B|----------------------------------------------|
G|----------------------------------------------|
D|-----------5-5-5-5--9-9-9-9--7-7-7-7-7-7-7-7--|
A|--5-5-5-5--3-3-3-3--7-7-7-7--5-5-5-5-5-5-5-5--|
E|--3-3-3-3-------------------------------------|

e|----------------------------------------------|
B|----------------------------------------------|
G|----------------------------------------------|
D|-----------5-5-5-5--7-7-7-7--9-9-9-9-9-9-9-9--|
A|--5-5-5-5--3-3-3-3--5-5-5-5--7-7-7-7-7-7-7-7--|
E|--3-3-3-3-------------------------------------|

Pre-Chorus
e|----------------------------------------------|
B|----------------------------------------------|
G|----------------------------------------------|
D|-----------5-5-5-5--7-7-7-7-------------------|
A|--2-2-2-2--3-3-3-3--5-5-5-5--5-5-5-5-5-5-5-5--|
E|--0-0-0-0--------------------3-3-3-3-3-3-3-3--|

Chorus
e|-------------------------------------|----------------------------------------------|
B|-------------------------------------|----------------------------------------------|
G|-------------------------------------|----------------------------------------------|
D|-----------5-5-5-5-------------------|-----------4-4-4-4--9-9-9-9-9-9--7-7-7-7-7-7--|
A|--2-2-2-2--3-3-3-3--5-5-5-5-5-5\4\2--|--2-2-2-2--2-2-2-2--7-7-7-7-7-7--5-5-5-5-5-5--|
E|--0-0-0-0-----------3-3-3-3-3-3\2\0--|--0-0-0-0-------------------------------------|

Solo
e|----|
B|----|                           JESUS!!!!
G|----|           I CAN NEVER FIGURE THESE DAMNED THINGS OUT!!
D|----|                     SHITASSBITCHFUCK!!!!!
A|----|                   AWESOME....COUNTRY FEEL!!!
E|----|

Outro
e|-------------------------------------|----------------------------------------------|
B|-------------------------------------|----------------------------------------------|
G|-------------------------------------|----------------------------------------------|
D|-----------5-5-5-5-------------------|-----------4-4-4-4--9-9-9-9-9-9--7-7-7-7-7-7--|
A|--2-2-2-2--3-3-3-3--5-5-5-5-5-5\4\2--|--2-2-2-2--2-2-2-2--7-7-7-7-7-7--5-5-5-5-5-5--|
E|--0-0-0-0-----------3-3-3-3-3-3\2\0--|--0-0-0-0-------------------------------------|

e|-------------------|--12~~~~~~~~~~~~~~~~--|--0--|
B|-------------------|--12~~~~~~~~~~~~~~~~--|--0--|
G|-------------------|----------------------|-----|
D|-------------------|----------------------|-----|
A|--5-5-5-5-5-5-5-5--|----------------------|-----|
E|--3-3-3-3-3-3-3-3--|----------------------|-----|

===================================================================


SORROW (SOLO) - Bad Religion

e-----------------------------------------------------------------------------------------------------------
b-12-----12-------------------------------------------------------------------------------------------------
g-14h16--14h16-----12----12-12h14-----------12-14-12-----------12b------------------------------------------
d----------------------------------12-14-12--------------12h14-----14-14--12h14--12h14--12-14-12-12h1412----
a-----------------------------------------------------14----------------------------------------------------
E-----------------------------------------------------------------------------------------------------------

e---------------------------------------------------------------------------------------------
b-----------------------------------13-15-13-12-13-12-------------------------------------
g----------12---12-14-12--12-12h14--------------------14-12-14-12-14b---------------------
d----12h14---14---------------------------------------------------------------------------
a-14--------------------------------------------------------------------------------------
E-----------------------------------------------------------------------------------------

e------12--------------------------------------------------------------------------
b----12--12-------------------------------------------------------------------------
g-14b------14-12--------b15b14-12-14-12---------------------------------------------
d----------------14-12-------------------------------------------------------------
a----------------------------------------------------------------------------------
E----------------------------------------------------------------------------------
  development and support by
dmitry ivanov