rock
 
|tablatures   |lyrics   |discussion forums   |more tabs @ XGuitar.com

Bad Religion tabs

Spirit Shine bass tab

Artist: Bad Religion
Song: Spirit Shine
Album: The Gray Race
Instrument: Bass
Tabbed by: Spidey255

Intro
G|-----|
D|-----|
A|-3---|
E|---3-|

Verse
G|------------------------------|
D|------------------------------|
A|----88-10-10-88-5555-88-10-10-|
E|-66---------------------------|

Chorus
G|-----|-------------------------------------|
D|-----|-------------------------------------|repeat but don't play
A|-3---|-88888888-33333333----------5555-3---|anything after the e-3>-
E|---3-|-------------------33333333--------3-|

Preverse               /  repeat  \\
G|--------------------|------------|
D|--------------------|------------|
A|-55555555-----------|-5-8-5------|
E|----------6666-8888-|-------6-88-|

Verse
G|-------------------|------------------------------|
D|-------------------|------------------------------|
A|----------55555555-|----88-10-10-88-5555-88-10-10-|
E|-66666666----------|-66---------------------------|

-First Chorus


Ending Chorus
G|-----|-----------------------------------------|
D|-----|-----------------------------------------|
A|-3---|----------33333333--------2-3-5-55555555-|
E|---3-|-11111111----------333333----------------|

G|-----------------------------------------------------------|
D|-----------------------------------------------------------|
A|----------33333333-------------/10-10-10-10-10-10-10-10-5~-|
E|-11111111----------33333333333/----------------------------|
  development and support by
dmitry ivanov