rock
 
|tablatures   |lyrics   |discussion forums   |more tabs @ XGuitar.com

Bad Religion tabs

Supersonic bass tab

Bad Religion
Supersonic

Guitar Intro For Bass
G----------------------------------------------
D------5---5-7-5-7-8-7-5-------5---5-8-7-5-9*--
A-7777---7----------------7777---7-------------
E----------------------------------------------

Intro
G---------------------
D------5--------------
A-7777---77-----------
E-----------8888-7777-

Verse
G---------------------
D---------------------
A-----------3333-2222-
E-0000-3-00-----------

Chours
G---------------------
D---------------------
A-3333-5555-----------
E-----------3333-2222-

At the End of each Chours...*-Those are 10's
G-----------------------------------------------
D-----------------------------------------------
A-3333-5555------------*1010101010101010--------
E-----------33333333-/--------------------------

Play intro

Bridge            Dont Play 2nd time
G-----------------^--------^----------------------
D-----------------4-5-7-5-4-----------------------
A------55555555-5-----------7-5-------------------
E-0x18---------------------------3x18-7x8-7-5-3-2-

The Last time...
G--------------------------
D--------------------------
A------5x18-3x18-5x8-6x8---
E-0x18---------------------

U'll get the rest rate!
  development and support by
dmitry ivanov