rock
 
|tablatures   |lyrics   |discussion forums   |more tabs @ XGuitar.com

Bad Religion tabs

The Defense bass tab

Band:Bad Religion
Song:The Defense
Tuning:Standard
Pleez go easy on me this is my first tab. I think its all right.

Intro/verse    the timings tricky on this so listen hard!
--------------------------------------------
--------------------------------------------
---2-2-2-2-2-3-3--2-2-2-2-2-3-3--2-2-2-3-3-- x11
--------------------------------------------

then
--------------------------------------
---3-3-3-3-3-3-3-3-3-3-3-3-3-3-3-3----
--------------------------------------
--------------------------------------

Chorus
-------------------------------------------------------------------------------
-------------------------------------------------------------------------------
---7-7-7-7-7-7-7-7-7-7-7-7-7-7-7-7---------------------------------------------
---------------------------------------------3-3-3-3-3-3-3-3-3-3-3-3-3-3-3-3---

-----------------------------------------------------------------------
-----------------------------------------------------------------------
---5-5-5-5-5-5-5-5-5-5-5-5-5-5-5-5---2-2-2-2-2-2-2-2-3-3-3-3-5-5-5-5--- x2
-----------------------------------------------------------------------

bridge bit with heavy drums
--------------------                        --------------------
-------------------- 1st chorus x1          --------------------
---7-7--7-7--7-7---- 2nd chorus don?t do it ---7-7--7-7---------
-------------------- 3rd chorus x2 and then ---------------0-0--

bridge after the 2nd verse   this is long so I put it in parts 2 make it esier

part1
--------------------------------------------------------
--------------------------------------------------------
---2-2-3-3--2-2-3-3--2-2-33--3-3-5-5--3-3-5-5---666-7--- x1
--------------------------------------------------------

part2
--------------------------
--------------------------
---7/5--5/3--3/2--2/0-- x1
--------------------------

part3
------------------------------------------------------------------------------
----------------------7-7-7-7-7-7-7-7----------------------5-5-5-5-5-5-5-5-5--
------------------------------------------------------------------------------ x1
---5-5-5-5-5-5-5-5---------------------3-3-3-3-3-3-3-3------------------------

part4
------------------------------------------------------------------------
---4-4-4-4-4-4-4-4-4-4-4-4-4-4-4-4---2-2-2-2-2-2-2-2-2-2-4-4-5-5-6-6----
------------------------------------------------------------------------
------------------------------------------------------------------------

-----------------------------------------------------------------------
---7-7-7-7-7-7-7-7-7-7-7-7-7-7-7-7---5-5-5-5-5-5-5-5-5-5-5-5-5-5-5-5---
-----------------------------------------------------------------------
-----------------------------------------------------------------------

-----------------------------------------------------------------------
---4-4-4-4-4-4-4-4-4-4-4-4-4-4-4-4---3-3-3-3-3-3-3-3-3-3-3-3-3-3-3-3---
-----------------------------------------------------------------------
-----------------------------------------------------------------------

--------------------------------------------
--------------------------------------------
---2-2-2-2-2-2-2-2-slide-up-into-the-chorus-
--------------------------------------------

order of song
verse
chorus
drum bit
verse
chorus
bridge
chorus
drum bit

thats all of it please rate this tab
  development and support by
dmitry ivanov