rock
 
|tablatures   |lyrics   |discussion forums   |more tabs @ XGuitar.com

Bad Religion tabs

The Empire Strikes First bass tab

Band: Bad Religion
Song: The Empire Strikes First
Album: The Empire Strikes First

Easy song, cool sounding, 100% correct

Intro:

G|----------------------------------|
D|----------------------------------|
A|----------5-5----3-3--------------|
E|---5-5-----------------3-1-3------|

Verse:

G|----------------------------------|
D|----------------------------------|
A|----------5-5----3-3--------------|
E|---5-5-----------------3-1-3------|

Chorus:

G|-------------------------------------|
D|-------------------------------------|
A|------------3-3-3---3--------5-5-----|
E|-5-5-5-3-5--------5---2-2-2------3-3-|

Bridge:

G|-------------------------------------|
D|-------------------------------------|
A|-----3---3-----3---3-----3---3-------|
E|-5-5---5---3-3---3---2-2---2---1-3---|

After Bridge:

G|-------------------------------------|
D|-------------------------------------|
A|-------------------------------------|
E|-5-5-5-5-5-5-5-5-5-5-5-5-5-5-5-5-5-5-| not exact number

That's It

Questions or Comments?
vanceaase67@hotmail.com
  development and support by
dmitry ivanov