rock
 
|tablatures   |lyrics   |discussion forums   |more tabs @ XGuitar.com

Bad Religion tabs

The Gray Race bass tab

Artist: Bad Religion
Song: The Gray Race
Album: The Gray Race
Instrument: Bass
Tuning: Standard
Tabbed by: Spidey255

Intro
G|----------|--------------------|---------------------|
D|----------|--------------------|---------------------|
A|-----/10~-|-----5-----5--8-----|---------------------|
E|-3~-------|-333--555-6-6---888-|-3333-5555-6666-8888-|

Verse
G|-------------------|
D|-------------------|
A|-555555-8--------8-|
E|----------888888---|

Prechorus
G|---------------------|
D|---------------------|
A|-----5------5--8-----|
E|-333---555-6-6---888-|

Chorus
G|---------------------|
D|---------------------|
A|------0000-1111-3333-|
E|-3333----------------|

Bridge
G|------------------|---------------------------------------------->
D|------------------|---------------------------------------------->
A|-555555-8-------8-|----------00000000-11111111-33333333-55555555->
E|---------888888---|-33333333------------------------------------->

G|--------------------------------------------|
D|--------------------------------------------|
A|-10-10-10-10-10-10-10-10-88888888-777777-88-|
E|--------------------------------------------|

-Verse (play fast)
-Prechorus

End on E|-3~-|
  development and support by
dmitry ivanov