rock
 
|tablatures   |lyrics   |discussion forums   |more tabs @ XGuitar.com

Bad Religion tabs

The Hopeless Housewife bass tab

Artist: Bad Religion
Song: The Hopeless Housewife
Album: New America
Instrument: Bass
Tuning: Standard
Tabbed by: Spidey255

Intro
G|--------------------|
D|--------------------|
A|------3333-----5555-|
E|-0000------333------|

Verse
G|---------------------------------|
D|---------------------------------|2x
A|-7-7-7-7-3-3-3-3----5555----5555-|
E|-----------------33------33------|

G|-------------------------------------|
D|-------------------------------------|
A|----------33333333----------55555555-|2x
E|-00000000----------33333333----------|

G|---------------------------------|
D|---------------------------------|2x
A|----------33333333-5-5-5-5-3-5-5-|
E|-00000000------------------------|

Chorus
G|----------------------|
D|----------------------|
A|---------2-55555-6666-|2x
E|-00-2-33--------------|

G|------------------------------------|
D|------------------------------------|2x
A|----------33333333---------55555555-|
E|-00000000----------3333333----------|

-repeat first part of chorus

Fill
G|-------------|
D|-------------|"To kill the
A|-3-5-3-5-3-2-|demons inside"
E|-------------|

-intro
-verse
-chorus
-repeat first part of chorus
-fill
-intro
  development and support by
dmitry ivanov