rock
 
|tablatures   |lyrics   |discussion forums   |more tabs @ XGuitar.com

Bad Religion tabs

The Lie bass tab

Artist: Bad Religion
Song: The Lie
Album: Process of Belief
Tuning: Standard
Tabbed by: Spidey255

Intro
G|----------------------|-----------------|
D|--------------3-2-0---|-----------------|
A|--------------------3-|--------------7\-|
E|-5555-0-3-111---------|-333333333333----|

Verse
G|----------------------------------------|
D|----------------------------------------|
A|--------33--------33--------------------|
E|-555555----333333----000000-33-5555-0-3-|

Prechorus
G|---------------------|
D|---------------------|
A|-5555-3333-2222------|
E|----------------3333-|

Chorus
G|--------------------------------------|------------------------|
D|--------------------------------------|------------------------|
A|-----------33-5-33----------3---------|--------------7-5-3-2-0-|
E|-55-3-55-3---------3-11-0-1---33333-0-|-000000000000-----------|

-intro
-verse
-chorus
-intro

Last time intro
G|---------------------------|
D|-----------3-4-55-5/7-5----|
A|----2-3-55---------------5-|
E|-33------------------------|

-chorus

Ending
G|--------------|
D|--------------|
A|--------------|
E|-5555-00-33-5-|
  development and support by
dmitry ivanov