rock
 
|tablatures   |lyrics   |discussion forums   |more tabs @ XGuitar.com

Bad Religion tabs

Them And Us bass tab

Artist: Bad Religion
Song: Them and Us
Album: The Gray Race
Instrument: Bass
Tuning: Standard
Tabbed by: Spidey255

Intro (only slide the first time)   play this after the first part
G|--------------------------|---------------------| was played
D|--------------------------|---------------------| 3 times
A|-------------------88-----|------6666-3333------|
E|-18\\3333-6666-8888----8-6-|-3333-----------1111-|

Verse
G|--------------------|--------------------|----------------------|
D|--------------------|--------------------|----------------------|
A|------1111-33333333-|------1111----------|-----------666666-5-6-|
E|-3333---------------|-3333------11111111-|-3333-6666------------|

Prechorus
G|-------------|----------|
D|-------------|----------|
A|-888-6-5-6-7-|----------|
E|-------------|-33333333-|

Chorus
G|--------------------------------------|----------------------|
D|--------------------------------------|----------------------|
A|-5555-8888-------------------33333333-|-666666-8-6-----------|
E|-----------66666666-11111111----------|------------6666-8888-|
(I'm not sure as to whether it's A|-8-| or A|-7-| in the chorus after the 5.
 Play it how you think it sounds best.)

-intro
-verse
-chorus

Post Chorus/Bridge
G|--------------------|-------------------|
D|--------------------|-------------------|
A|------6666-33333333-|-------------------|
E|-3333---------------|-1111111111111-Go!-|

Guitar Solo
G|--------------------------------------|
D|--------------------------------------|
A|-5555-3333-11111111----------33333333-|
E|--------------------11111111----------|

-chorus

Chorus Extension
G|-----------------------------------------|
D|-----------------------------------------|
A|-666666-8-6----------4444----------------|
E|------------66666666------4444-6666-8888-|

-intro

Ending
G|------------------------|
D|------------------------|
A|------6666------8888----|
E|-3333------8888------3~-|
  development and support by
dmitry ivanov