rock
 
|tablatures   |lyrics   |discussion forums   |more tabs @ XGuitar.com

Bad Religion tabs

There Will Be A Way bass tab

Artist: Bad Religion
Song: There Will Be A Way
Album: New America
Instrument: Bass
Tuning: Standard
Tabbed by: Spidey255

Intro/Verse
G|-----------------|
D|-----------------|
A|---------5555555-|
E|-00000-3---------|

Chorus
G|------------------------------------------------------------|
D|------------------------------------------------------------|
A|-33333333-55555555------------------------33333333-55555555-|
E|-------------------3333-2222-0000-5/7-7\\5-------------------|

-verse
-chorus
-verse
-chorus
-verse
-chorus

Extended Chorus
G|------------------|------------------------|
D|-----2-5----------|------------------------|
A|-3-5-----55555555-|-333333-2-3-55555-3-5-7-|
E|------------------|------------------------|

-verse

Ending
G|-----------------|
D|-----------------|
A|-555-3-5-3-2-0---|
E|---------------0-|
  development and support by
dmitry ivanov