rock
 
|tablatures   |lyrics   |discussion forums   |more tabs @ XGuitar.com

Bad Religion tabs

To Another Abyss bass tab

----------------------------------------------------------------------------------
                               To Another Abyss
----------------------------------------------------------------------------------
h = hammer on

   "Not long ago............."
G|--------------------------------------------------------------------------------------
D|------------------------------------1-1-----------------------------------------------
A|------------------1-3-33-1-1---1-5-------1-1------------------------------1-3-33-1-1--
E|-3-3--3-33----1h3----------------------------1--1-1-----3-3--3-3-33--1h3--------------

                            "And you know............."
G|------------------------|--------------------------------------------------------------
D|-------1-1--------------|-------1-0----------0-1-0--------1-0----------0-1-0-------1-0-
A|--1-5-------1-1---------|--3-5-------3-1---3-------3-1---------3-1---3-------3-1-------
E|-----------------1--1-1-|----------------1-------------1-----------1-------------1-----

                                                                          "To another
G|--------------------------------------------------------------------|----------------
D|----------0-1-0--------1-0----------0-1-1-1-1--3-3------------------|----------------
A|-3-1---3--------3-1--------3-1----3-----------------3-3-555555555---|----------------
E|-----1--------------1-----------1-----------------------------------|----------------

   abyss......."                                                     "To another abyss
G|---------------------------------------------------------------------------------------
D|-----------------------------3-3-----------------------3-3-3-3-3-----------------------
A|---------1-----1-3---------1-----1-1----------1-1-1-1---------------55555--------------
E|--3--333---1-1-----3--333------------3-3-3-3------------------------------------3--333-

                                                           "And it chills me to......
G|-------------------------------------------------------|---------------------------
D|--------------------3-3----------------------3-3-3-3-3-|---------------------------
A|-1-----1-3--------1-----1-1---------1-1-1-1------------|---------6-6-6-6-5-5-5-5-5-
E|---1-1-----3--333-----------3-3-3-3--------------------|---------------------------

                      "From home..............
G|-----------------------------------------------------------------------------------------|
D|------------------------------1-1-1-1---------------------------1-1-1-1------------------|
A|-3-3-3h5------------------------------1-1-1-1---------------------------1-1-1-1----------|
E|----------1-1-1-1-1---3-3-3-3------------------1-1-1-1---3-3-3-3-----------------1-1-1-1-|


G|--------------------------------------------------------------------------------------
D|------------------------------------1-1-----------------------------------------------
A|------------------1-3-33-1-1---1-5-------1-1------------------------------1-3-33-1-1--
E|-3-3--3-33----1h3----------------------------1--1-1-----3-3--3-3-33--1h3--------------


G|------------------------|--------------------------------------------------------------
D|-------1-1--------------|-------1-0----------0-1-0--------1-0----------0-1-0-------1-0-
A|--1-5-------1-1---------|--3-5-------3-1---3-------3-1---------3-1---3-------3-1-------
E|-----------------1--1-1-|----------------1-------------1-----------1-------------1-----


G|--------------------------------------------------------------------|----------------
D|----------0-1-0--------1-0----------0-1-1-1-1--3-3------------------|----------------
A|-3-1---3--------3-1--------3-1----3-----------------3-3-555555555---|----------------
E|-----1--------------1-----------1-----------------------------------|----------------


G|---------------------------------------------------------------------------------------
D|-----------------------------3-3-----------------------3-3-3-3-3-----------------------
A|---------1-----1-3---------1-----1-1----------1-1-1-1---------------55555--------------
E|--3--333---1-1-----3--333------------3-3-3-3------------------------------------3--333-

                                                           "And it chills me to......
G|-------------------------------------------------------|---------------------------
D|--------------------3-3----------------------3-3-3-3-3-|---------------------------
A|-1-----1-3--------1-----1-1---------1-1-1-1------------|---------6-6-6-6-5-5-5-5-5-
E|---1-1-----3--333-----------3-3-3-3--------------------|---------------------------

                      "From home..............
G|-----------------------------------------------------------------------------------------
D|------------------------------1-1-1-1---------------------------1-1-1-1------------------
A|-3-3-3h5------------------------------1-1-1-1---------------------------1-1-1-1----------
E|----------1-1-1-1-1---3-3-3-3------------------1-1-1-1---3-3-3-3-----------------1-1-1-1-

G|-----------------------------------------------------------------------------------------
D|---------1-1-1-1----------------------------1-1-1-1--------------------------------------
A|-----------------1-1-1-1----------------------------1-1-1-1------------------------------
E|-3-3-3-3-----------------1-1-1-1----3-3-3-3-----------------1-1-1-1----------------------

Play this last part untill the end of the song. well, that's it, it took me a long time
to tab, so enjoy it.Please rate

Questions or Comments?
vanceaase67@hotmail.com
  development and support by
dmitry ivanov