rock
 
|tablatures   |lyrics   |discussion forums   |more tabs @ XGuitar.com

Bad Religion tabs

Unacceptable bass tab

Bad Religion
Unacceptable (Bass Tab)
Against The Grain
Jay Bentley
Tabbed By:lilsk8er777@AOL.com
_____________________________
Intro:
G |-----------------------------------------------------------------|
D |-----------------------------3-3-----------------------------3-3-|
A |-5-5-5-5-1-1-1-1-0-0-0-0-0-0-----5-5-5-5-1-1-1-1-0-0-0-0-0-0-----|
E |-----------------------------------------------------------------|

Verse: [Repeat]
G |-----------------------------------------------------------------|
D |-----------------------------------------------------------------|
A |-5-5-5-5-5-5-5-5-5-5-5-5-1-1-0-0-5-5-5-5-5-5-5-5-5-5-5-5-1-1-0-0-|
E |-----------------------------------------------------------------|

Chorus:
G |-----------------------------------------------------------------|
D |-----------------------------3-3-----------------------------3-3-|
A |-5-5-5-5-1-1-1-1-0-0-0-0-0-0-----5-5-5-5-1-1-1-1-0-0-0-0-0-0-----|
E |-----------------------------------------------------------------|

  [1st ending]
G |-----------------------------------------------------------------|
D |-----------------------------3-3-5-5-5-5-5-5-5-5-7-7-7-8-7-7-7-7-|
A |-5-5-5-5-1-1-1-1-0-0-0-0-0-0-------------------------------------|
E |-----------------------------------------------------------------|

Bridge:
G |---------------------------------|
D |-----------------------------3-3-|
A |-5-5-5-5-1-1-1-1-0-0-0-0-0-0-----|
E |---------------------------------|

Repeat Verse

Repeat Chorus with 2nd ending:
G |-----------------------------------------------------------------|
D |-----------------------------3-3-----------------5-5-5-5-5-5-5-5-|
A |-5-5-5-5-1-1-1-1-0-0-0-0-0-0-----3-3-3-3-3-3-3-3-----------------|
E |-----------------------------------------------------------------|

Guitar Solo:
G |-----------------------------------------------------------------|
D |-----------------3-3-3-3-3-3-3-3---------------------------------|
A |-5-5-5-5-5-5-5-5-----------------3-3-3-3-3-3-3-3-5-5-5-5-5-5-5-5-|
E |-----------------------------------------------------------------|

G |-------------------------------------------------|
D |-------------------------------------------------|
A |-3-3-3-3-3-3-3-3-0-0-0-0-0-0-0-0-0-0-0-0-0-0-0-0-|
E |-------------------------------------------------|

Outro: [Repeat until the song fades out]
G |-----------------------------------------------------------------|
D |-3-3-3-3-------------------------3-3-3-3-------------------------|
A |---------4-4-4-4-3-3-3-3-3-3-3-3---------4-4-4-4-3-3-3-3-3-3-3-3-|
E |-----------------------------------------------------------------|
END
  development and support by
dmitry ivanov