rock
 
|tablatures   |lyrics   |discussion forums   |more tabs @ XGuitar.com

Bad Religion tabs

Walk Away bass tab

-------------------------------------------------------------------------------
			     WALK AWAY- Bad Religion
-------------------------------------------------------------------------------

By: Filippo Frigeri

Intro
G|----|-------------|
D|----|-------------|
A|-77-|-577-577-577-|
E|----|-------------|

verse x2 (second time without last part)
G|-------------|-------------|-------------|-------------|
D|-------------|-------------|-------------|-------------|
A|-577-533-355-|-577-577-577-|-5----77-755-|-577-577-577-|
E|-------------|-------------|--55-5-------|-------------|

G|-------------|-----------------|-------------|
D|-------------|--55--55--55--55-|-------------|
A|-577-533-355-|-5---5---5---5---|-5----77-755-|
E|-------------|-----------------|--55-5-------|

G|-------------|-----|
D|-------------|-----|
A|-577-577-577-|-577-|
E|-------------|-----|

Chorus
G|-----------------------------|-------------------------------|
D|-----------------------------|--------------55-5-------------|
E|-577-755-555-577-7-----------|--77-7----55-5-----------------|
E|------------------88-877-777-|-7----88-8--------88-877-777-7-|

Then Intro
Then Verse (without last part)
Then Chorus
Then Intro
Then Chorus
Then first part chorus and Intro again ending on A7 played once

One of my first tabs... i bet you can tell..
_______________________________________________________________________________
-------------------------------------------------------------------------------
  development and support by
dmitry ivanov