rock
 
|tablatures   |lyrics   |discussion forums   |more tabs @ XGuitar.com

Bad Religion tabs

Whisper In Time bass tab

-----------------------------------------------------------------------
              WHISPHER IN TIME - BAD RELIGION
-----------------------------------------------------------------------

Tabbed by Luca Zoffoli (lucazoffoli@libero.it)

INTRO X3 (bass start after the first guitar's riff)
G]-------------------------]
D]-------------------------]
A]--------12---------10----]
E]--10-10----10--8-8----8--]

BRIDGE
G]-----------------]
D]-----------------]
A]--7>-5>----5-7^--]
E]--------8>-------]

VERSú X2
G]------------------]
D]------------------]
A]--7>-5>----5--7>--]
E]--------8>--------]

CHORUS
G]--------------------------|--------------]
D]--------------------------|--------------]
A]----------5>--------------|--5>------7>--]
E]--8>--3>------3>--8>--0>--|------8>------]

VERSE

CHORUS (second part X2)

GUITAR SOLO PART X2
G]------------------]
D]------------------]
A]--7>-5>----5>-7>--]
E]--------8>--------]

VERSE

ENDING
G]-------------]
D]-------------]
A]--5>---------]
E]------8>-0^--]


VERSE

PRECHORUS
  development and support by
dmitry ivanov