rock
 
|tablatures   |lyrics   |discussion forums   |more tabs @ XGuitar.com

Bad Religion tabs

Whisper In Time guitar tab

WHISPER IN TIME


Tabbed out by Christopher L. Exner (cexner@pclink.com)


   SLIDE THESE TWO CHORDS BACK AND FORTH
   D      C    
e|-----------
B|-7------5--
G|-7------5--
D|-7------5--
A|-5------3--
E|-----------
  
  INTRO (WITH SOLO) 
  E         D        C      D  E
e|--------------------------------------
B|--------------------------------------
G|-9-9-9999-7-7-7777-5-5555-7--9-999999-
D|-9-9-9999-7-7-7777-5-5555-7--9-999999-
A|-7-7-7777-5-5-5555-3-3333-5--7-777777-
E|--------------------------------------

  SOLO  
e|--------------------------3-2--3P2-2P0--------------
B|------------------5--3-3----------------5P3-3H5-\5--
G|-4-4-4B(5)R(4)P2------------------------------------
D|----------------------------------------------------
A|----------------------------------------------------
E|----------------------------------------------------

  VERSE (LIGHTLY STRUM THESE CHORDS)
   E  D   C   D   E
e|---------------------
B|---------------------
G|-9---7---5---7---9---
D|-9---7---5---7---9---
A|-7---5---3---5---7---
E|---------------------

  CHORUS CHORDS
   C    G    D    G    C   Em D  C  Em
e|-0----3----2----3----0---0--2--0--0----
B|-1----0----3----0----1---0--3--1--0----
G|-0----0----2----0----0---0--2--0--0----
D|-2----0----0----0----2---2--0--2--2----
A|-3----2---------2----3---2-----3--2----
E|------3---------3--------0--------0----

  SOLO
e|-----------------------------------------------------------------
B|--------------8--------------------------------------------------
G|--/9--9--9-11---11--9--7-7----------------12~----14B(16)R(12)-9~-
D|------------------------------------12-14-----14-----------------
A|-----------------------------12/14-------------------------------
E|-----------------------------------------------------------------
  
  SOLO (cont)
e|-------12~(use---------------------12~~----12B(13)R(12)-----------17-
B|-------12~tremolo--15B(17)R(15)P12------15-------------------15H17---
G|-13-13-13~bar)------------------------------------------16H19--------
D|-14-14---------------------------------------------------------------
A|-14-14---------------------------------------------------------------
E|-12-12---------------------------------------------------------------

  SOLO (cont)
e|-19B(21)R(19)P17--------12~~12~~\--
B|------------------17-15------------
G|-----------------------------------
D|-----------------------------------
A|-----------------------------------
E|-----------------------------------

 Anyone in the Twin Cities area wanna jam? E-mail me.


[Document End]
  development and support by
dmitry ivanov