rock
 
|tablatures   |lyrics   |discussion forums   |more tabs @ XGuitar.com

Bad Religion tabs

You've Got A Chance guitar tab

YOU'VE GOT A CHANCE


Tabbed out by Christopher L. Exner (cexner@pclink.com)


  / = slide
  > = hit strings as fast as you can

 OPENING FILL
  / slide into it the first time only  
e|---------------------------------
B|---------------------------------
G|--/13-13-13-13-13-13-13-13---11--  play 3 times then...
D|---------------------------------
A|--/11-11-11-11-11-11-11-11---9---
E|---------------------------------

e|--------------------------
B|--------------------------
G|--13-13-13-13---16-16-16--  let ring
D|-------------------------- 
A|--11-11-11-11---14-14-14--
E|--------------------------


  INTRO/SOLO RHYTHM
   C#       A       E         B        C#       A        E        G#
G|-------------------------------------------------------------------------
D|-66666666----------99999999----------66666666----------99999999----------
A|-44444444-77777777-77777777-99999999-44444444-77777777-77777777-66666666-
E|----------55555555----------77777777----------55555555----------44444444-

  VERSE
G|------------------------
D|-666---6----------------
A|-444---4--7777--66666---
E|----------5555--44444---

  CHORUS
G|-------------------------      ----------------------------------
D|-x999-------------------- x3   ----------------------------------
A|-x777-9999-11111111-7777- then -66666666-13-13-13-13-13-13-13-13- 
E|------7777-9-9-9-9--5555-      -44444444-11-11-11-11-11-11-11-11-

  BRIDGE
   B   F#  C#  G#  B      F#
G|---------6---------------------
D|-9---4---6---6---9------4------
A|-9---4---4---6---9------4------
E|-7---2-------4---7------2------

  LEAD-FILL OVER INTRO (letters above tab correspond to INTRO rhythm)
   C#          A           E                   B        
e|-------------------------------------------------------
B|------------------------------------------------------- continued
G|-13-13->>>>>-10-10->>>>--13-13-13-13--11--9--8/9--8-8-- below
D|-------------------------------------------------------
A|-11-11->>>>>-7--7-->>>>--11-11-11-11--9---7--6/7--6-6--
E|-------------------------------------------------------

   C#            A              E                      G#
e|--------------------------------------------------------------------------
B|--------------------------------------------------------------------------
G|-6-6666-6/9-6--9-9999-9/11--13--13131313--16-13-16---16---13---11---9---6-
D|--------------------------------------------------------------------------
A|-4-4444-4/7-4--7-7777-7/9---11--11111111--14-11-14---14---11----9---7---4-
E|--------------------------------------------------------------------------

   FILL OVER CHORUS
   E         B          C#          A              G#
e|------------------------------------------      --------------------------
B|------------------------------------------      --------------------------
G|-16-16-16-11-11-11-11-13-13-13-13-9-9-9-9- x3   -8-8-8-8-8-8-8-8-13-13-13-
D|------------------------------------------ then --------------------------
A|-14-14-14-9--9--9--9--11-11-11-11-7-7-7-7-      -6-6-6-6-6-6-6-6-11-11-11-....
E|------------------------------------------      --------------------------

   OUTRO FILL (is something like this)
e|----0---0---0---0----0---0---0---0--- play this    ---0---0---0---0---0--0---0---0
B|--5---5---5---5----4---4---4---4----- until G#     -4---4---4---4---9---9---9---9-
G|------------------------------------- part, then...-------------------------------

  SOLO ANYONE? let me know.
e|---------------------------------------------------------------------------|
B|---------------------------------------------------------------------------|
G|---------------------------------------------------------------------------|
D|---------------------------------------------------------------------------|
A|---------------------------------------------------------------------------|
E|---------------------------------------------------------------------------|

Anyone who lives in the Twin Cities area and wants to jam, please e-mail me.


[Document End]
  development and support by
dmitry ivanov