rock
 
|tablatures   |lyrics   |discussion forums   |more tabs @ XGuitar.com

Green Day tabs

Espionage bass tab

GREEN DAY - "Espionage" - Bass Tab

Common Time(4/4)
Standard Tuning(EADG)


INTRO/MIDDLE:
                            (x4)
|---------|---------|-----------|
|---------|---------|*---------*|
|---------|---------|*-r-e-s-t-*|
|-0-------|---------|-----------|
  1 2 3 4   1 2 3 4    1 2 3 4

VERSES 1, 2, 3 & 4:
                (x8)                (x4)                (x4)
|-------------------|-------------------|-------------------|
|*-----------------*|*-----------------*|*-----------------*|
|*-----------------*|*-0-0-3-3-0-0-3-3-*|*-----------------*|
|--0-0-3-3-0-0-3-3--|-------------------|--0-0-3-3-0-0-3-3--|
   1 & 2 & 3 & 4 &     1 & 2 & 3 & 4 &     1 & 2 & 3 & 4 &

                              (x2)
|----------------|----------------|---------------|---------------|
|*---------------|---------------*|---------------|---------------|
|*-2---2---2-0-2-|-3---3---3-5-3-*|-2---2---2---2-|-2---2---2-0-2-|
|----------------|----------------|---------------|---------------|
   1 2 & 3 & 4 &   1 2 & 3 & 4 &    1 2 & 3 & 4 &   1 2 & 3 & 4 &
                                       
                                         
|-----------------|-----------------|
|-----------------|-1-1-1-1-1-1-1-1-|
|-3-3-3-3-3-3-3-3-|-----------------|
|-----------------|-----------------|
  1 & 2 & 3 & 4 &   1 & 2 & 3 & 4 &


END:
|---------|---------|---------|---------|
|---------|---------|---------|---------|
|---------|---------|---------|---------|
|-0-------|---------|---------|---------|
  1 2 3 4   1 2 3 4   1 2 3 4   1 2 3 4 


By: Johari Taylor
E-mail: viking@powerup.com.au, or s369700@student.uq.edu.au
More Bass Tabs: http://www.powerup.com.au/~viking/basstab.htm
  development and support by
dmitry ivanov