rock
 
|tablatures   |lyrics   |discussion forums   |more tabs @ XGuitar.com

Jethro Tull tabs

Just Trying To Be guitar tab

Just Trying To Be 
Album: Living In The Past 
Ian Anderson, Jethro tull 
Transcribed by: John Fahey  <goog64@yahoo.com> 
                            19th may 2000 

intro 
e----2----0--------------2----0-------------2--------------------------0 
b---3------------3--------------3-------------3----3-------------------2 
g---2-------2---2--------------2--------2---------2--------------------2 
d---0---------------------------0--------------------------------------2 
a---0---------------------------0--------------------------------------0 
e----------------------------------------------------------------------- 

Main Verse Pattern: 
"There was a time when you........... 
..........................................................lead you astray." 
e---2---2---2--0---------0--0--0--0--------------------------------------\ 
b---3---3---3----3--0---3--3--3--3------0----1--1--1--0----------\ 
g---2---2---2--------0---0--0--0--0--2--------0--0--0--0---------\REPEAT 4 
d----0---0---0------------------------------------2--2--2--0----------\ 
a-----------------------------------------------3--3--3--3--0------------\ 
e-------------------------------------------------------------------------\ 
  

Bridge pattern: 
"Unfeeling feel........................you're going wrong." 
e-----------------------------------------------------------------------\ 
b----------------------------------------------------------------------\ 
g-2-2-2-2-2-2-2-etc--5-5-5-5-5-5-5-5-5-etc-3-3-3-3-3-3-3-3-etc-\REPEAT 2 
d----0----------------------0--------------------------0---------------\ 
a---------------------------------------------------------------------\ 
e---------------------------------------------------------------------\ 

"chorus" 
"And they can't see.................................what we seem." 
       A5                   C            G            A5 
e ---5----------------------------------------------------------- 
b ---5----------------------------------------------------------- 
g ---2----------------------------------------------------------- 
d ---2----------------------------------------------------------- 
a ---0----------------------------------------------------------- 
e --------------------------------------------------------------- 

End: 
"And even now..........................only a dream." 
Repeat main verse pattern once and then: 
e -----2---0--------------2--------0---------------------- 
b -----3------3---0----------3----2--------------------- 
g -----2----------------------------2---------------------- 
d -----0----------------------------2---------------------- 
a -----0----------------------------0---------------------- 
e ---------------------------------------------------------- 

If anyone can make it more accurate please let me know.
  development and support by
dmitry ivanov