rock
 
|tablatures   |lyrics   |discussion forums   |more tabs @ XGuitar.com

Kiss tabs

Lonely Is The Hunter bass tab

LONELY IS THE HUNTER (from the KISS CD "ANIMALIZE")
--------------------

Transcribed by Emil Ortenmark, emil@kissasylum.com

Tuned down 1/2-step

Comments:


Key:
/    = slide up
\    = slide down
b    = bend (whole step)
b^   = bend (1/2 step)
b^^  = bend (1 1/2 steps)
pb   = pre-bend
r    = release-bend
t    = tap with righthand finger
h    = hammer-on
p    = pull-off
~    = Vibrato
*    = Natural Harmonic
#(#) = Trill
**   = Artificial Harmonic
x    = Dead notes (no pitch)
P.M. = Palm mute (- -> underneath indicates which notes)
(\)  = Dive w\bar
(/)  = Release w\bar
Tp   = Tap w\plectrum



Rhythm Fig. 1

Gb|-------------------------------------------------------------------------|
Db|------------2------------------------------2------------12--------12-----|
Ab|------------------------5----------------------------------12--12----12\-|
Eb|--0---0--3----3--0---0-----5-----0---0--3-----3--0---0-------------------|



Rhythm Fig. 2

Gb|-------------------------------------------------------------------------|
Db|-----------2----------------------------2-----------12--------12---------|
Ab|------------------------5----------------------/12-----12--12----12--12\-|
Eb|-0---0--3-----3--0---0----5----0---0--3---3--0---------------------------|



Rhythm Fig. 3

Gb|-------------------------------------------------------------------------|
Db|--------------2----------------------------------2-----------------------|
Ab|----------------------------5-------------------------------------0------|
Eb|--0-----0--3-----3--0----0-----5-----0-----0--3-----3--0----0--3---------|



Rhythm Fig. 4a

Gb|-------------------------------------------------------------------------|
Db|-------------2---------------------------------2-------------5-----------|
Ab|---------------------------5------------------------------------5--------|
Eb|--0----0--3-----3--0----0-----5-----0----0--3-----3--0----0--------------|



Rhythm Fig. 4b

Gb|-------------------------------------------------------------------------|
Db|-------------2---------------------------------2-------------5-----------|
Ab|---------------------------5------------------------------------5b-r5----|
Eb|--0----0--3-----3--0----0-----5-----0----0--3-----3--0----0--------------|



Rhythm Fig. 5a

Gb|-------------------------------------------------------------------------|
Db|-------------------------------------------------------------------------|
Ab|---------------------5--5---------------------------------5--------------|
Eb|--0--0--------3------------------------0--0--------3---------------------|



Rhythm Fig. 5b

Gb|-------------------------------------------------------------------------|
Db|-------------------------------------------------------------------------|
Ab|---------------------5--5-------------------------------5/-----15\-------|
Eb|--0--0--------3----------------------0--0--------3-----------------------|



Rhythm Fig. 6

Gb|-------------------------------------------------------------------------|
Db|------------2------------------------------2--------5---5---5------------|
Ab|-------------------------5-------------------------------------5---5---5-|
Eb|--0---0--3----3--0----0-----5----0---0--3-----3--0-----------------------|



Rhythm Fig. 7

Gb|-------------------------------------------------------------------------|
Db|--------------------------------------------------5--5--5----------------|
Ab|-----------------------------------------------------------5--5--5-------|
Eb|--3p0-3p0-3p0-0-0--0-3p0-3p0-0-0-3p0-3p0-3p0-0-0-------------------------|



Rhythm Fig. 8

Gb|-------------------------------------------------------------------------|
Db|--------------------------------------------------5--5--5\--0--0--0------|
Ab|-------------------------------------------------------------------------|
Eb|--3p0-3p0-3p0-0-0--0-3p0-3p0-0-0-3p0-3p0-3p0-0-0-------------------------|



Gb|-------------------------------------------------------------------------|
Db|--5--5--5----------------------------------------------------------------|
Ab|-----------5--5--5---------------5--5--5---3--3--3--0--------------------|
Eb|----------------------3--3--3---------------------------------0----------|



Rhythm Fig. 9

Gb|-------------------------------------------------------------------------|
Db|--5---5---5---------------5---5---5--------------------------------------|
Ab|--------------5---5---5---------------5---5---5---3---3---3---0----------|
Eb|-------------------------------------------------------------------------|



Gb|-------------------------------------------------------------------------|
Db|-------------------------------------------------------------------------|
Ab|--7--7-------------------------------------------------------------------|
Eb|-------------------------------------------------------------------------|



Riff 1

Gb|-------------------------------------------------------------------------|
Db|--12----------12---------------------------------------------------------|
Ab|-----12---12-----12\-----------------------------------------------------|
Eb|-------------------------------------------------------------------------|
  development and support by
dmitry ivanov