rock
 
|tablatures   |lyrics   |discussion forums   |more tabs @ XGuitar.com

Mxpx tabs

Begin to Start bass tab

Song:  Begin To Start
Band:  MxPx
Album: Let it Happen
By:    BassD			>=play a couple of time
				h=hammer on  \=slide to

Cool Intro (start slow then speed up!!) x5
G|------9-------------|
D|----6---9-6-7-4-6---|
A|-\7-----------------|
E|--------------------|

Verse x2
G|--------------|
D|--------------|
A|-7>-2>-0>-2>--|
E|--------------|

Chorus x1 "Life confuses me"
G|--------------------------|
D|-------2>----------2>-----|
A|-0>-2>----2>-0>-2>----2>--|
E|--------------------------|

(Verse x2)
(Chorus x1)

Bridge (Kick ass!!)
G|----------------------------------------------------------------------------|
D|-------------------6-6-6-------6h7-6h7--------------7-7-7-------7-9-9-9-----|
A|-7>-2>-0-0-0-7-7-7-------7-7-7----------------9-9-9-------9-9-9-------------|
E|----------------------------------------7-7-7-------------------------------|

G|-------------------------------------------------------------------------|
D|-------------------6-6-6-------6h7-6h7--------------7-7-7-9-9-9-7-7-6----|
A|-7>-2>-0-0-0-7-7-7-------7-7-7----------------9-9-9----------------------|
E|----------------------------------------7-7-7----------------------------|

(Verse x2)

Chorus (Fast)
G|--------------------------|
D|-------2>----------2>-----|
A|-0>-2>----2>-0>-2>----2>--|
E|--------------------------|

End with (slow part)
G|--------------------------------|
D|-------2>----------2>----2ring--|
A|-0>-2>----2>-0>-2>----2>--------|
E|--------------------------------|

I corrected the bridge, so now the song is 100% correct.
Enjoy people.
any questions,requests are welcome.
Email= rancid_ska@hotmail.com
  development and support by
dmitry ivanov