rock
 
|tablatures   |lyrics   |discussion forums   |more tabs @ XGuitar.com

Mxpx tabs

Biased Bigotry bass tab

BAND: MXPX
SONG: Biased Bigotry
CD: Let It Happen
EMAIL: JAGNFL1112@aol.com

I finally got the time to tab this song out. I think it’s an awesome song, one of the best on that cd.  So here it is, enjoy it.

Intro (Wait for the guitar’s small part)
G|---------------------------------|
D|---------------------------------|
A|---------5---------7-------------|    (2x)
E|-----55-------77------5>---------|

1st Verse
G|-------------------------------------------------------|
D|-------------------------------------------------------|
A|-------------------------------55555555555555555-------|     (2x)
E|----55555555555---2222222222---------------------------|

Chorus
G|--------------------------------------------------------------|
D|--------------------------------------------------------------|
A|---444444444-55555555----------55544-7---------55544-7--------|     (2x)
E|-----------------------55555------------55555-----------------|

After Chorus
G|-----------------------------------|
D|-----------------------------------|
A|---------4-555555----77--4-55555---|     (1x)
E|---5-22------------5---------------|

G|------------------------------------|
D|------------------------------------|
A|--------4-555555----777777--55555---|     (1x)
E|---5-22-----------------------------|

2nd Verse, Same as the first

Chorus

3rd Verse (“The way I see, the way it seems to me....”)
G|-----------------------------------------------------------------|
D|-----------------------------------------------------------------|
A|----------------44444-55555-------------------4-44444-5-55555----|   (2x)
E|----5555555555---------------5-55555-5-55555---------------------|

Bridge
G|-----------------------------------------------------------|
D|--------------7777-------------7777------77-6--------------|
A|--------------------------------------77------7---555---45-|
E|---555555555--------5555555555------------------------5----|

G|----------------------------|
D|-------77-6-----------------|
A|---77-------7--555---45-----|     (2x)
E|-------------------5--------|

Chorus

After Chorus

Ending
G|------------------------------7---------------|
D|---------6676-4--676------4-7---7-454---------|
A|----77-----------------55---------------------|     (2x)
E|----------------------------------------5>>>--|

That’s all. A very awesome song by one of the greatest bands. I’m pretty sure I tabbed all of it 100% right, so rate it high- Jordan
  development and support by
dmitry ivanov