rock
 
|tablatures   |lyrics   |discussion forums   |more tabs @ XGuitar.com

Mxpx tabs

Buildings Tumble bass tab

Author/Artist: MXPx
Title: Buildings Tumble
Album: The Ever Passing Moment
Transcribed by: Ron
Email: SHR00MMAJiK@aol.com

This program is written in guitar format so ignore the top 2 lines.
If anyone finds mistakes with this tab, let me know. Thanx and have fun!

Standard Tuning


     Verse

-xxxxxxxxxxxxxxxxxxxxxxxxxxxxxxxxxxxxxxxxxxxxxxxxxxxxxxxxxxxxxxxxxxxxxxxxxxxx-
-xxxxxxxxxxxxxxxxxxxxxxxxxxxxxxxxxxxxxxxxxxxxxxxxxxxxxxxxxxxxxxxxxxxxxxxxxxxx-
-|-|-------------------------/x2/-------|-------------------------------------
-|-|------------------------------------|-------------------------------------
-|5|----------55555555-7777777777777777-|-------------------------------------
-|-|-33333333---------------------------|-------------------------------------
                   Some of us.....

-xxxxxxxxxxxxxxxxxxxxxxxxxxxxxxxxxxxxxxxxxxxxxxxxxxxxxxxxxxxxxxxxxxxxxxxxxxxx-
-xxxxxxxxxxxxxxxxxxxxxxxxxxxxxxxxxxxxxxxxxxxxxxxxxxxxxxxxxxxxxxxxxxxxxxxxxxxx-
------------------------------------------------------------------------------
------------------------------------------------------------------------------
-33333333--------3333333333333333-33333333--------55555555--------------------
---------33333333-------------------------33333333----------------------------
                      Chorus

-xxxxxxxxxxxxxxxxxxxxxxxxxxxxxxxxxxxxxxxxxxxxxxxxxxxxxxxxxxxxxxxxxxxxxxxxxxxx-
-xxxxxxxxxxxxxxxxxxxxxxxxxxxxxxxxxxxxxxxxxxxxxxxxxxxxxxxxxxxxxxxxxxxxxxxxxxxx-
-------------------------------/x2/|------------------------------------------
-----------------------------------|-----------------5-4-2--------------------
-33333333-55555555-----------------|33333333-55555555-----33333333-55555555---
-------------------3333333333333333|----------------------------------------3-
             Bridge                        |2nd time through, end on D-0|

-xxxxxxxxxxxxxxxxxxxxxxxxxxxxxxxxxxxxxxxxxxxxxxxxxxxxxxxxxxxxxxxxxxxxxxxxxxxx-
-xxxxxxxxxxxxxxxxxxxxxxxxxxxxxxxxxxxxxxxxxxxxxxxxxxxxxxxxxxxxxxxxxxxxxxxxxxxx-
------------------/x2/-|----------------------------/x2/----------------------
-------------2-0-------|---------------------------------------2222222-000000-
---5-7-----3-----------|--------5555555-77777777777777-3333333----------------
-3-----3/7-------------|-3333333----------------------------------------------
        Play chorus again, guitar plays outro. There ya have it!
  development and support by
dmitry ivanov