rock
 
|tablatures   |lyrics   |discussion forums   |more tabs @ XGuitar.com

Mxpx tabs

Creation bass tab

Song: Creation
Band: MXPX
Bassist: Mike Herrera
Tabbed by: James Bradley

This was a pretty easy song to figure out,
but it's a cool song.

> means strum

Intro/Verse
G---------------------------------------
D---------------------------------------
A----------5>----7----------------------
E--7>--4>------5------------------------

Chorus
G---------------------------------------
D---------------------------------------
A------5---7----7---5-------------------
E--4>----5---7>---5---------------------
  development and support by
dmitry ivanov