rock
 
|tablatures   |lyrics   |discussion forums   |more tabs @ XGuitar.com

Mxpx tabs

Cristalena bass tab

Song: Cristalena
Band: MxPx
Album: Life in General
Corrections By: Murray Pigdon (mikeherrera07@hotmail.com

Original Tab by Doug ( footprints@theoffice.net )

Intro:

G:-----------------------------------------------------------------
D:-----------------------------------------------------------------
A:--5 a bunch of times---------------------------------------------
E:-----------------------------------------------------------------

Chorus:

G:-----------------------------------------------------------------
D:-----------------------------------------------------------------
A:-----3----5-3------3-----5-3-------------------------------------
E:--3----3--------3------3-----------------------------------------

Verse:

G:-----------------------------------------------------------------
D:----------------2-------2----------------------------------------
A:----3----5-3-------3-------5-------------------------------------
E:-3----3----------------------------------------------------------

Bridge:

G:-----------------------------------------------------------------
D:--2------5-------------------------------------------------------
A:------3------5---------------------------------------------------
E:-----------------------------------------------------------------

Bass End:

G:-----------------------------0-----------------0-0---------------
D:-----------2--0-----0-----------------------0-------4-4--3-3--2--
A:----2---2--------3-----0--3-----2--0--2--3-----------------------
E:--3---3----------------------------------------------------------

G:-----------------------------------------------------------------
D:-2--1-1--0-0-----------------------------------------------------
A:--------------3-3--2-2-------------------------------------------
E:------------------------3--(Hold until fade-out)-----------------

Order:

Intro x1
Chorus x1
Verse x1
Chorus x1
Bridge x2
Chorus x1
Bass End x1
  development and support by
dmitry ivanov