rock
 
|tablatures   |lyrics   |discussion forums   |more tabs @ XGuitar.com

Mxpx tabs

Destroyed By You bass tab

Song:destroyed by you
Band:MXPX
Album:life in general
tabbed by:chris




G:---------------------------------------------------------------
D:---------------------------------------------------------------
A:-7-------7----------------------------------------------------
E:-----5---------5----------------------------------------------



G:----------------------------------------------------------------------------
D:--------6--7--9--7--6------7---------6--7--9--11--9--7--6----------
A:-7--9---------------------9-----7--9-------------------------------------
E:---------------------------------------------------------------


G:---------------------------------------------------------------
D:---------------------------------------------------------------
A:-7-------------------------------------------------------------
E:----2--5--2--5--2--5--7------------------------------------


G:---------------------------------------------------------------
D:---------------------------------------------------------------
A:-7----------------------------7------------------------------
E:-----5--2--7---9--10----------5--2--5--7---------------

i think that is all!
  development and support by
dmitry ivanov