rock
 
|tablatures   |lyrics   |discussion forums   |more tabs @ XGuitar.com

Mxpx tabs

Do Your Feet Hurt guitar tab

Band: MxPx
Song: Do Your Feet Hurt
Album: Life In General

Tunning: EADGBe

                          You need to Figure rhythm out yourself
                          Sorry I didn't put the words but you can                               listen to the chord changes on the CD.

*: plam mute
~: let it ring

Intro:
e---------------------------------
B---------------------------------
G---------------------------------
D---------------------------------
A-1-1-1-1-0---0-1-3-5-3-1---------
E-----------3-------------1-------

Verse:
e----------------------------------------------------------------
B---------------666----------------------------------------------
G----------77777777----------------------------------------------
D-777777---77777777--------------------------3333333--777777-----
A-777777---55555555--1-1-1-1-0---0-1-3-5-3-1-3333333--777777-----
E-555555-----------------------3-------------1111111--555555-----

e----------------------------------------------------------------
B----66-------------------------------------------------666------
G-77777---------------------------5------------------777777------
D-77777---------------------------5---333333--777777-777777------
A-55555--1-1-1-1-0---0-1-3-5-3-1--3---333333--777777-555555------
E------------------3------------------111111--555555-------------

e----------------------------------------------------------------------
B-------------------------------------------66-------------------------
G----------------------------------------77777-------------------------
D-------------------------333333--777777-77777-------------------------
A-1-1-1-1-0---0-1-3-5-3-1-333333--777777-55555-1-1-1-1-0---0-1-3-5-3-1-
E-----------3-------------111111--555555-----------------3-------------

Chorus:
e--------------------------------------------------------------------
B--------------------------------------------------------------------
G-555555---------------7~--5~----------55555-------------------------
D-555555-888888-777777-7~--5~--888888--55555-7-------7-------8-------
A-333333-888888-777777-5~--3~--888888--33333-7-77777-7-77777-8-88888-
E--------666666-555555---------666666--------5-55555-5-55555-6-66666-
                                               *****   *****   *****

e---------
B---------
G-5-------
D-5-55555-
A-3-33333-
E---------
    *****

As soon as the plam muting ends on the chorus play this to start 2nd verse:
e---------
B---------
G---------
D-3-------
A-3-33333-
E-1-11111-
    *****

Then Play:
Verse
Chorus

Bridge:
e---------------------
B---------------------
G-----7~-----333-555--
D-3~--7~--5~-333-555-- 2x
A-3~--5~--5~-111-333--
E-1~------3~----------

e-----------------------------------------
B-----------------------------------------
G-----------------------------------------
D-333333-55555-------77777-333333-555555--
A-111111-33333-33333-55555-111111-333333--
E--------------11111----------------------
 ***************************************

e--------------------------------------------------
B---------------------666--------------------------
G------------------777777--------------------------
D-3333333--777777--777777--------------------------
A-3333333--777777--555555--1-1-1-1-0---0-1-3-5-3-1-
E-1111111--555555--------------------3-------------

Outro:
e------------------------------------
B------------------------------------
G---------777777--------33333-55555--
D-333333--777777-777777-33333-55555-- 2x
A-333333--555555-777777-11111-33333--
E-111111---------555555--------------

End On:
e----
B----
G----
D-3~-
A-3~-
E-1~-

Comments Concerns E-Mail Moki1990@aol.com
  development and support by
dmitry ivanov