rock
 
|tablatures   |lyrics   |discussion forums   |more tabs @ XGuitar.com

Mxpx tabs

Doing Time bass tab

Song:doing time
Band:mxpx
Album:life in general
tabbed by:chris ( NSherw5893@aol.com )




G:---------------------------------------------------------------
D:---------------------------------------------------------------
A:--------4---------2-------------4--------------------------
E:--2----------------------------------------------------------


G:---------------------------------------------------------------
D:---------------------------------------------------------------
A:-----------------------2------------4----------------------
E:---2---------0-----------------------------------------------


G:---------------------------------------------------------------
D:---------------------------------------------------------------
A:--6-----4--------2------4----------------------------------
E:---------------------------------------------------------------


i think that is all of it!
  development and support by
dmitry ivanov