rock
 
|tablatures   |lyrics   |discussion forums   |more tabs @ XGuitar.com

Mxpx tabs

Don't Look Back bass tab

Song:  Don't Look Back
Band:  MxPx
Album: The Renaissance EP
By:    BassD		     >=play a couple of time
		             *=a pause
                             ring and r=let the note sound

Intro                   /Verse
G|----------------------|-------------------------|
D|----------------------|-------------------------|
A|---3------------------|---------3>--------------|
E|-1---3--3-3-3-3-3-3-0-|-1>--3>-------1>--3>--*--|

Chorus
G|--------------------------------------------|
D|--------------------------------------------|
A|-3>-2>-----------3>-2>----------------------|
E|-------1>-3ring--------1>-3>-5>--5-3-1>-3>--|

G|-------------------------------------------------|
D|-------------------------------------------------|
A|-3>-2>----------------------3-3-3----------------|
E|-------1>-3>-5>--5-3-1>-3>--------3-3-3-3-3-3-0--|

(Verse)

Chorus 2
G|--------------------------------------------|
D|--------------------------------------------|
A|-3>-2>-----------3>-2>----------------------|
E|-------1>-3ring--------1>-3>-5>--5-3-1>-3>--|

G|----------------------------------------------------------------------------|
D|----------------------------------------------------------------------------|
A|-3>-2>----------------------3-3-3----3-3-3----8-8-8----3-3-3----------------|
E|-------1>-3>-5>--5-3-1>-3>-----------------------------------3-3-3-3-3-3-0--|

Bridge
G|(x2)-----------------------|------------|
D|---------------------------|------------|
A|------------3r--2r--0r-----|------------|
E|-1ring--3r--------------3r-|-1>--3>--*--|

End with Chorus but don't play the E|--3-3-3-3-3-3-0--|

Hope you like it!
If you ever want to buy the new cd The Renaissance EP write me
and I will tell you somethings you should know about the cd.
rancid_ska@hotmail.com
  development and support by
dmitry ivanov