rock
 
|tablatures   |lyrics   |discussion forums   |more tabs @ XGuitar.com

Mxpx tabs

Don't Walk Away guitar tab

MXPX - Don't walk away
album: Before everything and after
Tunning: Standard
Tabbed by: Foreign Pyro


Well there was no tab for this song and i wanted to learn it so i just
figured it out by myself. Its not perfect but i think its pretty close.
Here it is:

Intro 2x

b---0---4~---0----5~-|
g-4---4----4---4-----|

Riff1  (palm mute, strum each chord about 16 times)- the bass normally
plays this but i just palm mute it as power chords.

g-4--4--|
d-4--2--|
a-2-----|

Riff2 (verse, strum each chord about 16 times)- palm mute

g-4--4--4--4--3--6--4--2--|
d-4--2--4--2--1--6--2--2--|
a-2-----2--------4-----0--|

Riff3 (chorus, strum each chord about 16 times)- don't palm mute

g-4--4--4--4--3--6--4--2--|
d-4--2--4--2--1--6--2--2--|
a-2-----2--------4-----0--|

Riff4 (bridge, strum each chord once and hold it)

g-6~--2~--6~--2~--|
d-6~--2~--6~--2~--|
a-4~--0~--4~--0~--|

Riff5 (outro, strum each chord once and hold it)

g-4~--4~--4~--4~--4~--|
d-4~--2~--4~--2~--4~--|
a-2~------2~------2~--|


Order:

Intro
Riff1 x2
Riff2
Riff3
Riff1 x1
Riff2
Riff3
Riff4
Riff1 x2
Riff3
Riff5

        Alright thats it...hope thats not too confusing or anything. Its
an awesome song! If you have any comments or questions you can e-mail me
at foreign_pyro@hotmail.com...Enjoy!
  development and support by
dmitry ivanov