rock
 
|tablatures   |lyrics   |discussion forums   |more tabs @ XGuitar.com

Mxpx tabs

Ears to Hear bass tab

Band: Mxpx
Album: Pokinatcha

Verse:
G:---------------------------------------------------------------
D:---------------------------------------------------------------
A:-5>-0>-1>------------------------------------------------------
E:----------3>---------------------------------------------------

Pre-Chorus:
G:---------------------------------------------------------------
D:---------------------------------------------------------------
A:-555-00-----------------------------------------------------
E:-----------33333333----------------------------------------

Chorus:
G:---------------------------------------------------------------
D:-------------22------------------------------------------------
A:-0>-1>-5>------5522--------------------------------------------
E:-------------------55------------------------------------------

Bridge:
G:---------------------------------------------------------------
D:---------------------------------------------------------------
A:-0-010----010-010-----------5555====---------------------------
E:---------3-3-----------3333------------------------------------

Ending:
G:---------------------------------------------------------------
D:---------------------------------------------------------------
A:-555-00--------5-----------------------------------------------
E:-----------3333------------------------------------------------
  development and support by
dmitry ivanov