rock
 
|tablatures   |lyrics   |discussion forums   |more tabs @ XGuitar.com

Mxpx tabs

Elvis Is Dead bass tab

Intro
G|---------------------------------------------------------------
D|----2-----3-----------------2-----3-----------------2-----3----
A|--3---0-1---0-----0-1-2-0-3---0-1---0-----0-1-2-0-3---0-1---0--
E|--------------1-1---------------------1-1----------------------

--------------------------------------|
--------------2-----3-----------------|
----0-1-2-0-3---0-1---0--------0-1-2*-|
1-1---------------------1--1-1--------|

Verse
G|--------------------------------------------|
D|--------------------------------------------|
A|-3>-1>-----3>-1>-----3>-1>-----3>-1>--------|
E|-------1>--------1>--------1>--------1>-3>--|

Chorus
G|-------------------------|
D|-------------------------|
A|----3>-1>--------3>-1>---|
E|-1>-----------1>---------|

(Intro)
(Verse)
(Chorus)
End on A|--3ring--| and let it sound
  development and support by
dmitry ivanov