rock
 
|tablatures   |lyrics   |discussion forums   |more tabs @ XGuitar.com

Mxpx tabs

Falling Down bass tab

Song: Falling Down
Band: MxPx
Album: Teenage Politics
Bassist: Mike Herrera
Tabbed By: BassD

>=play a couple of time
/=slide down \\=slide up
ring=let the note sound
h=hammer on p=pull-off

Intro/Verse
G|------------------------------------|
D|------------------------------------|
A|--3ring------------3ring------------|
E|------------1>-3>------------1>-3>--|

Chorus
G|---------------------------------------------|
D|---------------------------------------------|
A|--------3>-2-3>-2-3>-2-3>--------------------|*
E|-1>--3>-------------------1>-0-1>-0-3>-0-3>--|*

G|-------------------2p0--------------------------------|
D|------3\\2-0h2----------2p0------3\\2-0h2------/5ring---|
A|-3>-----------3>-----------3>-----------3>------------|
E|------------------------------------------------------|

Verse 2
G|----------------------------|
D|----------------------------|
A|----------------------------|
E|--------1>-3>--------1>-3>--|

Chorus
G|---------------------------------------------|
D|---------------------------------------------|
A|--------3>-2-3>-2-3>-2-3>--------------------|*
E|-1>--3>-------------------1>-0-1>-0-3>-0-3>--|*

G|-------------------2p0--------------------------------|
D|------3\\2-0h2----------2p0------3\\2-0h2------/5ring---|
A|-3>-----------3>-----------3>-----------3>------------|
E|------------------------------------------------------|

Bridge x4
G|-------------------------------|
D|-----2h3-----2h3-----2h3-------|
A|-3-3-----3-3-----3-3--------2--|
E|-------------------------3-----|

Verse
G|-----------------------------------|
D|-----------------------------------|
A|-3ring------------3ring------------|
E|-----------1>-3>------------1>-3>--|

End with Chorus

****=here is the way to play the chorus (the first two note 1> and 3> are
easy)
G|------------------------------------------------------------------|
D|------------------------------------------------------------------|
A|-3-3-3-3-3-3-3-2-3-3-3-3-3-3-3-2-3-3-3-3-3-3-3-2-3-3-3-3-3-3-3-3--|
E|------------------------------------------------------------------|

G|------------------------------------------------------------------|
D|------------------------------------------------------------------|
A|------------------------------------------------------------------|
E|-1-1-1-1-1-1-1-0-1-1-1-1-1-1-1-0-3-3-3-3-3-3-3-0-3-3-3-3-3-3-3-3--|

Easy song, enjoy!
rancid_ska@hotmail.com
  development and support by
dmitry ivanov