rock
 
|tablatures   |lyrics   |discussion forums   |more tabs @ XGuitar.com

Mxpx tabs

False Fiction bass tab

MxPx
"False Fiction"
Tabbed by Jeremy Hicks
Pecobuh@aol.com

Intro:
G ---------------------------------2--------2---------|
D ------------2-------2----0-0-0-4----0-0-4-----------|
A --0-0-0-4-----0-0-4---------------------------------|
E ----------------------------------------------------|

Play intro twice and break into the Main Riff:

G ------------------2------2-4-----2-4------|
D-------2-4-------2----0-4-----0-4----------|
A--0-4-------0-4----------------------------|
E-------------------------------------------|

Besides these two parts, the bass plays the roots of
the guitar chords which are "A" and "D".

After the verse, break into the main riff and after
playing that twice it goes to the chorus and back to
the main riff and then the second verse.

The End

This song rocks, my band played it at a party and it was awesome!!!!!!!!

For questions or comment e-mail Pecobuh@aol.com
See-ya

Alternate:
Tabbed By: Kyle Kensrue
E-Mail: dougk@intellistar.net


Intro (2x)
g-----------------------------------
d-----------------------------------
a-------------55555-55555-----------
e-55555-55555-----------------------

Riff A
g-----------------------------------
d------------457--457---------------
a--457--457-5----5------------------
e-5-----5---------------------------

Riff B
g--------------------------------------------
d--------------------------------------------
a----------------------55555555555555555555--
e-55555555555555555555-----------------------

Riff C
g-----------------------------------
d-----------------------------------
a------------5555555555-------------
e-5555555555------------------------

Pretty simple huh? Keep strong in your faith and remember two things 1.
God Rulz!! and 2. "Freedom comes from faith in what you believe" -the Insyderz
  development and support by
dmitry ivanov