rock
 
|tablatures   |lyrics   |discussion forums   |more tabs @ XGuitar.com

Mxpx tabs

First Class Mail bass tab

Song: 1st Class Mail
Band: MxPx
Tabbed By: Kurt    wsu182@hotmail.com

Here are the parts...

Verse
G-------------------------------------
D-------------------------------------
A-------------------44444444----------
E-66666666-22222222----------44444444-

Chorus
G-------------
D-------------
A-----4---4-6-     X3
E-444---4-----

G---------------------------------------
D---------------------------------------
A----------44444444-666666-99-88-66-44--     X1
E-66666666------------------------------

End of Chorus
G--------------------
D--------------------
A-----4-------------
E--22----4--66666666-
  development and support by
dmitry ivanov