rock
 
|tablatures   |lyrics   |discussion forums   |more tabs @ XGuitar.com

Mxpx tabs

First Class Mail guitar tab

Band: Mxpx
Song: First class mail
Tabbed by: Camilo Medina (182dogwoodpunx)

Intro
e----------------------------------
B----------------------------------
G----------------------------------
D-4~----------4~-//////////////----
A-4~----------4~-//pick slide//----
E-6~----------6~-//////////////----

e----------------------------------------------------------------
B----------------------------------------------------------------
G---------8-6----------------------------8-6-8-13-11-10-8-10-11--
D-8-10-11-----10-8-10-11-6-10-11-8-10-11-------------------------
A----------------------------------------------------------------
E----------------------------------------------------------------

Verse
e-------------------------------
B-------------------------------
G---------------66-666---------- x4
D-88-888-44-444-66-666-66-666---
A-88-888-44-444-44-444-66-666---
E-66-666-22-222--------44-444---

Chorus
e--------------------------------
B--------------------------------
G--------66-666-88-888-11-10-8-6-x2
D-88-888-66-666-88-888-11-10-8-6-
A-88-888-44-444-66-666-9--8--6-4-
E-66-666-------------------------

e------------------------------
B------------------------------
G----666----666----666-8888888- x2
D-88-666-88-666-88-666-8888888-
A-88-444-88-444-88-444-6666666-
E-66-----66-----66-------------

Just after that comes an 
e-----------
B-----------
G----6------
D-44-6-6-8~-
A-44-4-6-8~-
E-22---4-6~-

Well, the rest of the song is the same thing, so I guess you can fuigure that out

Any coments or questions: camilo_182@hotmail.com


..-^*^-..(@M1L0*GoSSiP CRuX..-^*^-..
  development and support by
dmitry ivanov