rock
 
|tablatures   |lyrics   |discussion forums   |more tabs @ XGuitar.com

Mxpx tabs

First Day of the Rest of Our Lives bass tab

BAND: MXPX
SONG: FIRST DAY OF THE REST OF OUR LIVES
TABBED BY: FERNANDO SANCHEZ QUIRARTE

THIS IS MY SECOND TAB SO.... HOPE YOU LIKE IT
IF IT IS INCORRECT PLEASE MAIL ME TO FALLOUT_PUNKROCK@HOTMAIL.COM

INTRO
G-----------------------
D-----------------------
A--555-55/777-77-------
E-----------------------



G------------------------------------------
D------------------------------------------
A---------------555-55/777-77------------
E--555-55--555-55--------------------------


Verse 1
G------------------------------------------
D------------------------------------------
A--------------555-55/777-77-------------  2 TIMES
E--555-55-555-55---------------------------


PRE-CHORUS
G------------------------------------------
D------------------------------------------
A9-99995-5555-7-7777777777777------------ 2 TIMES
E------------------------------------------

CHORUS
G------------------------------------------
D------------------------------------------
A--------------555-55/777-77------------ 3 TIMES
E--555-55-555-55---------------------------

G------------------------------------------
D------------------------------------------
A---------------555555/777777------------
E--555-55-555-55---------------------------

THEN
G------------------------------------------
D------------------------------------------
A-------------555-55/777-77-------------- 2 TIMES
E--555-55-555-55---------------------------

VERSE 2
G------------------------------------------
D------------------------------------------
A-------------555-55/777-77-------------- 2 TIMES
E--555-55-555-55---------------------------

THEN PLAY THE PRE-CHORUS AGAIN

AFTER IT PLAY THE CHORUS AGAIN


BRIDGE
G-------------------------
D-------------------------
A999-9\5555/7777--------- 2 TIMES
E-------------------------

PLAY THE CHORUS AGAIN

THEN PLAY THESE

G-----------------------------------
D-----------------------------------
A------------ 777-77/999-99-------- 3 TIMES
E-777-77-777-77---------------------

G---------------------------------
D---------------------------------
A-------------77777/99999--------
E-777-77-777-77-------------------

OUTRO

G-----------------------------------
D-----------------------------------
A------------ 777-77/999-99--------
E-777-77-777-77---------------------

G-----------------------------------
D-----------------------------------
A------------ 777-77/999-99--------
E-777-77-777-77---------------------

END

G------------
D------------
A------------
E-----7---:---


Thanks for read it and hope you enjoy it
  development and support by
dmitry ivanov