rock
 
|tablatures   |lyrics   |discussion forums   |more tabs @ XGuitar.com

Mxpx tabs

First Day of the Rest of Our Lives guitar tab

MxPx
First Day of the Rest of Your life
Tabbed by Jake L.
Questions or comments: jakeloleit@hotmail.com


Verse
|-------------|
|-------------|
|-------------|
|-7-7-7-7-7-7-|
|-7-7-7-7-7-7-|
|-5-5-5-5-5-5-|

Pre chorus
|----------------------------------------|
|----------------------------------------|
|-11xx11-7xxx7------11xx11-7xxx7-9-9-9-9-|
|-11xx11-7xxx7-7xxx-11xx11-7xxx7-9-9-9-9-|
|-9xxx9--5xxx5-7xxx-9xxx9--5xxx5-7-7-7-7-|
|--------------5xxx----------------------|

Chorus
|-------|
|-------|
|---7-9-|
|-7-7-9-|
|-7-5-7-|
|-5-----|

Bridge
|--------------------|
|-----------10-------|
|-11-9-7-9--11-9-7-9-|
|-11-9-7-9--11-9-7-9-|
|-9--7-5-7--9--7-5-7-|
|--------------------|

Ending
|--------|
|--------|
|---9-11-|
|-9-9-11-|
|-9-7-9--|
|-7------|
  development and support by
dmitry ivanov