rock
 
|tablatures   |lyrics   |discussion forums   |more tabs @ XGuitar.com

Mxpx tabs

Foolish bass tab

Band: MxPx
Song: Foolish
Album: Ever Passing Moment
Tabbed by: Ryan Willet

Intro
G -------------------------------------------------
D ----0--2-----------------------------------------
A -0>----------------------------------------------
E -------------------------------------------------

Verse
G -------------------------------------------------
D -------0>--2>-----0--2---------------------------
A -0>-----------0>---------------------------------
E ----2>-------------------------------------------

Pre-Chorus
G --------------------------------------------------
D -0>--------2>--0>---------------------------------
A ----2>--0>--------2>--0>--------------------------
E -------------------------0------------------------

Chorus
G ----------------------------------------------------
D -0>-------------------------------------------------
A -----2>-----0>--------------------------------------
E --------2>-----0------------------------------------

Bridge
G ------------------------------------------------------
D ---------0>----2>--------0>-----------0>-----2--------
A ------------0>--------------------------0-------------
E ---2>--0>----------2>--0>------2>--0>-----------------
  development and support by
dmitry ivanov