rock
 
|tablatures   |lyrics   |discussion forums   |more tabs @ XGuitar.com

Mxpx tabs

For Always bass tab

Song: For Always
Artist: MxPx

tabbed by: intense@westol.com

Intro:
-------------------------------------------------------------
-------------------------------------------------------------
-----------------------------------------4-4-4-4-4-4-4-4-4-4-
-2-2-2-2-2-2-2-2-2-2-2-2-2-2-2-2-2-2-2-2---------------------

-------------------------------------------------------------
-------------------------------------------------------------
-------------------------------------------------------------
-4-4-4-4-4-4-4-4-4-4-2-2-2-2-2-2-2-2-2-2-2-2-2-2-2-2-2-2-2-2-

-----------------------------------------
-----------------------------------------
-4-4-4-4-4-4-4-4-4-4---------------------
---------------------4-4-4-4-4-4-4-4-4-4-

Verse:
-------------------------------------------------------------
-----------------------------------------6-6-6-6-6-6-6-6-6-6-
---------------------4-4-4-4-4-4-4-4-4-4---------------------
-2-2-2-2-2-2-2-2-2-2-----------------------------------------

Chorus:
-----------------------------------------------------------------
-----------------------------------------------------------------
---------------------4-4-4-4-4-4-4-4-4-4-------------------------
-6-6-6-6-6-6-6-6-6-6---------------------4-4-4-4-2-2-2-2-4-4-4-4-

-----------------------------------------------------------------
-----------------------------------------------------------------
---------------------4-4-4-4-4-4-4-4-4-4-------------------------
-6-6-6-6-6-6-6-6-6-6---------------------2-2-2-2-2-2-2-2-2-2-1-1-

---------------------------------------------------------
---------------------------------------------------------
---------------------------------------------------------
-1-1-1-1-1-1-1-1-4-4-4-4-4-4-4-4-4-4-4-4-4-4-4-4-4-4-4-4-

Pre 2nd verse:

-----------------------------------------
---------------------6-6-6-6-6-6-6-6-6-6-
-4-4-4-4-4-4-4-4-4-4---------------------
-----------------------------------------

After 2nd chorus:
---------------------------------------------------------------------
---------------------6-6-6-6-6-6-6-6-6-6-----------------------------
-4-4-4-4-4-4-4-4-4-4------------------------------------------------- 2 times
-----------------------------------------2-2-2-2-2-2-2-2-2-2-2-2-2-2-

---------------------------------------------------------------------
---------------------------------------------------------------------
-------------------------------------------------------------4-4-4-4-
-6-6-6-6-6-6-6-6-6-6-4-4-4-4-4-4-4-4-4-4-2-2-2-2-2-2-2-2-2-2---------

---------------------------------------------------------------------
---------------------------------------------------------------------
-4-4-4-4-4-4---------------------------------------------------------
-------------6-6-6-6-6-6-6-6-6-6-4-4-4-4-4-4-4-4-4-4-2-2-2-2-2-2-2-2-

---------------------------------------------------------------------
---------------------------------------------------------------------
---------------------------------------------------------------------
-2-2-1-1-1-1-1-1-1-1-1-1-4-4-4-4-4-4-4-4-4-4-4-4-4-4-4-4-4-4-4-4-4-4-

Outro:
-----------------------------------------
-----------------------------------------
-4-4-4-4-4-4-4-4-4-4---------------------
---------------------2-2-2-2-2-2-2-2-2-2-
  development and support by
dmitry ivanov