rock
 
|tablatures   |lyrics   |discussion forums   |more tabs @ XGuitar.com

Mxpx tabs

GSF bass tab

Artist:MxPx
 Album:Let it Happen
 Song: GSF

Intro: 2x
 G|--------------------------------------------------|
 D|-------------0-0-0-------------------------2-3-2--|
 A|-------2-3-2-------2-0-2-------2-0-2-3-3-3--------|
 E|-3-3-3-------------------0-0-0--------------------|

Verse: 2x
 G|--------------------------------------------------|
 D|-------------2-2-2-2-2-2--------------------------|
 A|-------------------------3-3-3-3-3-3-5-5-5-5-5-5--|
 E|-3-3-3-3-3-3--------------------------------------|

Pre-Chorus: 2x
 G|--------------------------------------------------|
 D|-------------------------------------0-0-0-0-0-0--|
 A|-------------2-2-2-2-2-2-3-3-3-3-3-3--------------|
 E|-3-3-3-3-3-3--------------------------------------|

Chorus:
 G|--------------------------------------------------|
 D|-2-2-2-2-2-2-------------------------0-0-0-0-0-0--|
 A|-------------3-3-3-3-3-3-2-2-2-2-2-2--------------|
 E|--------------------------------------------------|

 G|--------------------------------------------------|
 D|-2-2-2-2-2-2-------------------------0-0-0-0-0-0--|
 A|-------------3-3-3-3-3-3--------------------------|
 E|-------------------------3-3-3-3-3-3--------------|

Tabbed by Kevin Anderson
special_k_02@yahoo.com

I know this is different from what everyone else has,
not only different, but correct, or at least closer
that what I've seen (heard).
  development and support by
dmitry ivanov