rock
 
|tablatures   |lyrics   |discussion forums   |more tabs @ XGuitar.com

Mxpx tabs

Here With Me bass tab

Song: Here With Me
Band: MxPx
Album: The Ever Passing Moment
Bassist: Mike H.
Tabbed By: BassD

>=play a couple of time
/=slide up
ring=let the note sound

Intro
G|------------------------------------------------|
D|------------------------------------------------|
A|--------------1-2>-4>-6>-/8--9---2>-4>-/9ring---|
E|--2ring---2-4-----------------------------------|

Verse 1 x2 "Would it be too much to ask?"
G|--------------------------------------------|
D|--------------------------------------------|
A|-9--9--9--9--9-9--6>--2>-4>-/9--9--9--9--9--|
E|--------------------------------------------|

Chorus "I want you here with me"
G|------------------------------------------------------------------------|
D|------------------------------------------------------------------------|
A|-2>-4>-/9-9--9--9-9--9--9-9--9--9-9--9-2>-4>-6>-/8--9---2>-4>-/9ring----|
E|------------------------------------------------------------------------|

Verse 2 x2 "I'm on the other side now"
G|--------------------------------------------|
D|--------------------------------------------|
A|-9--9--9--9--9-9--6>--2>-4>-/9--9--9--9--9--|
E|--------------------------------------------|

Chorus 2
G|----------------------------------------------------------------------|
D|----------------------------------------------------------------------|
A|-2>-4>-/9-9--9--9-9--9--9-9--9--9-9--9-2>-4>-6>-/8--9---2>-4>---------|
E|--------------------------------------------------------------2ring---|

During guitar solo
G|----------------------------------|---------------------------------|
D|----------------------------------|---------------------------------|
A|-----1-2>-4>-6>-/8--9---2>-4>-----|-2>-4>-6>-/8--9---2>-4>----------|
E|-2-4--------------------------2>--|------------------------2ring----|

End with Chorus 3
G|--------------------------------------------------------|
D|--------------------------------------------------------|
A|-2>-4>-/9-9--9--9-9--9--9-9--9--9-9--9-2>-4>-6>-/8--9---|
E|--------------------------------------------------------|

G|-----------------------------------------------------------|
D|-----------------------------------------------------------|
A|-2>-4>-------2-4-------2-4-6ring--8-9-2ring-4ring----------|
E|-------2ring-----2ring----------------------------2ring----|End

Wow that's a cool song!
See Ya In The Pit
rancid_ska@hotmail.com
  development and support by
dmitry ivanov