rock
 
|tablatures   |lyrics   |discussion forums   |more tabs @ XGuitar.com

Mxpx tabs

Honest Answers bass tab

Song: Honest Answers
Artist: MxPx
Album: Let it Happen
Tabbed By: Paul Assaad (pxpx47@hotmail.com)

This is the correct version of this awesome, awesome song.
I apologize to the author of the incorrect one.

Intro (repeat without 8ring)                (1)
G|-------------------------------------------
D|-------------------------------------------
A|-8ring-----565------565---6>-5656--8>-8865-
E|--------6>----6--3>----6-------------------

Verse (2x)                                  (2)
G|-------------------------------------------
D|-------------------------------------------
A|-------6>-8>-------------------------------
E|-6>-3>-------------------------------------

Pre-chorus (2x)                             (3)
G|-------------------------------------------
D|-------------------------------------------
A|----8>-10-10>-6>-8>------------------------
E|-6>----------------------------------------

Chorus (2x)                                 (4)
G|-------------------------------------------
D|-------------------------------------------
A|----6>----8h10-5h6-5h6-5-----8h10-5h6-5h6-5
E|-3>----6>-----------------6>---------------

Bridge (Post-chorus)                        (5)
G|-------------------------------------------
D|-------------------------------------------
A|----565------565---6>-5656--8>-8865--------
E|-6>----6--3>----6--------------------------

Bass solo (fill-in, 1st three times)        (6)
G|-------------------------------------------
D|---------------------------5--------5------
A|-6-5------6-6h5-----------5--------5-------
E|-----8-6--------8-6--3-3h5----3-3h5--------

End of Bass solo (4th time)                 (7)
G|-------------------------------------------
D|-------------------------------------------
A|-6-5------6-6h5------8-8-6-6h5-55-3-3------
E|-----8-6--------8-6------------------------

Order: 1, 2, 3, 4, 5, 2, 3, 4, 6, 7, 4(end w/o bass)

Please feel free to email me with any questions/comments.
  development and support by
dmitry ivanov