rock
 
|tablatures   |lyrics   |discussion forums   |more tabs @ XGuitar.com

Mxpx tabs

Honest Answers guitar tab

Band:MXPX
Album:Let It Happen
Song:Honest Answers
Tabbed By:Matt Johnson
e-mail:  Gjohn11018@aol.com

Intro: Play 2X
e|-------------------------------------------------------
b|-------------------------------------------------------
g|6---------87---------87---------------878-101010101010-
d|6-666666-8--8-555555---8-101010101010-----101010101010-
a|8-666666------555555-----101010101010------8-8-8-8-8-8-
e|--888888------333333------8-8-8-8-8-8------------------

cont.
e|-------------------------------------------------------
b|-------------------------------------------------------
g|--10-8-7-----------------------------------------------
d|-8-----------------------------------------------------
a|-------------------------------------------------------
e|-------------------------------------------------------

Verse:
e|-------------------------------------------------------
b|-------------------------------------------------------
g|-------------------------------------------------------
d|888888-555555-101010101010-333333----------------------
a|888888-555555-101010101010-333333----------------------
e|666666-333333--8-8-8-8-8-8-111111----------------------

Chorus:
e|-------------------------------------------------------
b|-------------------------------------------------------
g|--(pm)---(pm)---Soft then Loud---8888-10101010---------
d|8-8888-3-3333---{5-5-5-5-5-5}----8888-10101010---------
a|8-8888-3-3333---{5-5-5-5-5-5}----6666--8-8-8-8---------
e|6-6666-1-1111---{3-3-3-3-3-3}--------------------------

Bridge:
Threatened by what you don't understand...
e|-------------------------------------------------------
b|-------------------------------------------------------
g|------88888--------------------------------------------
d|55555-88888-88888--------------------------------------
a|55555-66666-88888-8h10-5h6p5h6p5-----------------------
e|33333-------66666--------------------------------------

Bridge #2:
e|-------------------------------------------------------
b|-------------------------------------------------------
g|88-x-x-888-x-x-x---------------------------------------
d|88-x-x-888-x-x-x-55-x-x-x-555--------------------------
a|66-x-x-666-x-x-x-55-x-x-x-555-Play 4X------------------
e|-----------------33-x-x-x-333--------------------------

cont.Play this on the fourth time
e|-------------------------------------------------------
b|-------------------------------------------------------
g|88-x-x-x-888-x-x-x-------------------------------------
d|88-x-x-x-888-x-x-x-1010101010--------------------------
a|66-x-x-x-666-x-x-x--8-8-8 8-8--------------------------
e|--------------------8-8-8-8-8--------------------------

I'm pretty sure this is exactly right.  If you have any tabs
from "Let It Happen" please e-mail them to me.
  development and support by
dmitry ivanov