rock
 
|tablatures   |lyrics   |discussion forums   |more tabs @ XGuitar.com

Mxpx tabs

I'm OK, You're OK bass tab

Song:im ok, you're  ok
Band:mxpx
Album:slowly going the way of the buffalo
tabbed by:chris



INTRO
G:---------------------------------------------------------------
D:---------------------------------------------------------------
A:-3--------------------------------------------------------------
E:---------------------------------------------------------------

VERSE & CHORUS
G:---------------------------------------------------------------
D:---------------------------------------------------------------
A:----3-1-3----------------------------------------------------
E:-1-----------------------------------------------------------

middle thing he does
G:--------------------------------------------------------------
D:--------------------------------------------------------------
A:-5-4-3-1-3----------------------------------------------
E:--------------------------------------------------------------
  development and support by
dmitry ivanov