rock
 
|tablatures   |lyrics   |discussion forums   |more tabs @ XGuitar.com

Mxpx tabs

Inquiring Minds Want to Know bass tab

BAND: MxPx
SONG: Inquiring Minds Want To Know
CD: Teenage Politics
EMAIL: JAGNFL1112@aol.com

I DID IT! I single handedly tabbed every last bit of this song and it is about 98% correct, which is really good considering the difficulty of the song.  The bass solo is amazing and took me forever to figure out.  The rest of the song took me about 5 minutes.  So the solo is the only thing I’m not 100% sure on, but the rest of the song is all correct. So, have fun and you’re welcome.

Intro
G|--------------------------------|---------------------------------------|
D|--------------------------------|---------------------------------------|
A|---0-222-0-222--5-7-8888--------|---------0-222-0-222--8-7-5555---------|
E|--------------------------------|---------------------------------------|
	Part I	(2x)		Part II (1x)

G|--------------------------------------------------------|
D|--------------------------------------------------------|
A|---0-222-0-222---8-7-5---5-7-8---8-7-5---7-5-22---------|
E|--------------------------------------------------------|

Verse
G|------------------------------|
D|------------------------------|
A|---22222222---55-3------------|  (4x)
E|----------------------33-5----|

Chorus
G|---------------------------------------------|
D|---------------------------------------------|
A|--222222------------33333--------5555--------|  (2x)
E|-----------555555----------3333--------------|

After Chorus
G|------------------------------------------------|
D|------------------------------------------------|
A|--3-222222-----555555--3-222222-----5-7777------|  (2x)
E|------------3--------------------3--------------|

Bridge
G|------------------------------------------|
D|------3-2---------------------------------|
A|-2222------22222-0-55555-0-7777-8-77------|  (2x)
E|------------------------------------------|

Verse (4x)

Chorus (2x)

After Chorus (2x)


Bass Solo/Bridge
G|------------------------------------------------------------------------------|
D|-----4--------------------------77-5-----------7--------55-3------------------|
A|--2----4-5--7-7-55-----------7-------7-55-77-9-------5--------5--33--11--0----|
E|--------------------99-77--5-----------------------3-----------------------3--|

G|---------------------------------------|
D|-----------------------------2-3-5-3-2-|
A|------------1-0-1-3---5-3-5------------| (2x)
E|-1-0-1-3-------------------------------|

After Chorus
G|------------------------------------------------|
D|------------------------------------------------|
A|--3-222222-----555555--3-222222-----5-7777------|  (1x)
E|------------3--------------------3--------------|

Then finish After Chours With
G|-----------------------------------------------|
D|-----------------------------------------------|
A|---3-222222----5555555--3-222222-----5--6767---|
E|-------------3--------------------3------------|

That’s the song tabbed out almost exactly right.  Very awesome song.  MxPx is one of the greatest bands of all time.  I hope you agree.  Anyway, please rate this - Jordan
  development and support by
dmitry ivanov