rock
 
|tablatures   |lyrics   |discussion forums   |more tabs @ XGuitar.com

Mxpx tabs

It's Alright guitar tab

Song : Its alright
Band: MxPx
Album : Before everything and after
Guitarist : Tom Wisniewski 
Tabber : Mark Gray (AIM screen name: Snaredrummer85)

This is my 1st tab and im pretty sure this is 99.9 percent right.

Intro

e--------------------------------
B--------------------------------
G-----777777777777 7 7-----------
D-----777777777777 7 7-----------
A-----555555555555 5 5-----------
E--------------------------------

Verse: (\"There is no map there are no signs...\")

e-----------------------------------------------
B-----------------------------------------------
G---------------44444444---55555555-----77777777 ( x2 )
D----55555555---44444444---55555555-----77777777
A----55555555---22222222---33333333-----55555555 
E----33333333-----------------------------------

Pre Chorus (\"And you know, everyone here has been invited to go...\")

e------------------------------------------------------------
B------------------------------------------------------------
G--9---7----------5--55---9--7-----------5--55--9--99--7--77-
D--9---7---5--55--5--55---9--7---5--55---5--55--9--99--7--77-
A--7---5---5--55--3--33---7--5---5--55---3--33--7--77--5--55-
E----------3--33-----------------3--33-----------------------
          {-----x2----}         [-----x4-----}


Chorus: (\"Its all right, its all right...\")

e------------------------------------------------------------
B------------------------------------------------------------
G----------5--55--------7--77---5-55-------------------------
D---5--55--5--55--(x3)--7--77---5-55 (All x4) (2x clean, 2x dist)
A---5--55--3--33--------5--55---3 33-------------------------
E---3--33----------------------------------------------------

Post Chorus:

e---------------------------------------
B---------------------------------------
G----------5--55---7777777--------------
D---5--55--5--55---7777777--------------
A---5--55--3--33---5555555--------------
E---3--33------------------------------

Outro:

e---------------------------------------
B---------------------------------------
G------------5--55---7--7---------------
D----5--55---5--55---7--7  (x4) End on 5
A----5--55---3--33---5--5--------------5
E----3--33-----------------------------3


Order:
Intro
Verse
Pre Chorus
Chorus
Post Chorus
Verse
Pre Chorus
Chorus (x2)
Outro
  development and support by
dmitry ivanov