rock
 
|tablatures   |lyrics   |discussion forums   |more tabs @ XGuitar.com

Mxpx tabs

Jay Jay's Song bass tab

Song: Jay Jay's Song
Band: MxPx
Album: Pokinatcha
Bassist: Mike Herrera
Tabbed By: BassD

r=let the note ring
\=slide up  *=a pause
h=hammer-on  p=pull-off

Intro (00:02-00:03)
G|-------------------------|
D|-------------------------|
A|-------5r-7-5-4----------|
E|-7-777----------7-7-5-7\-|

Verse (00:05)
G|(x4)--------------------------|
D|------------------------------|
A|----------------5-5-5-4-4-4---|
E|-7--7-7-7-7-7-7-------------5-|

Pre-Verse 1 (00:15)            /(00:20)                   /
G|(x2)-------------------------|(x1)----------------------|
D|-----------------------------|--------------------------|
A|-------5r-7-5-4--------------|-------5r-7-5-4-----------|
E|-7-777----------7-7-5-7--7-7-|-7-777----------7-7-5-7-*-|
 (00:22)                       /(00:25)                   /
G|(x1)-------------------------|(x1)----------------------|
D|-----------------------------|--------------------------|
A|-------5r-7-5-4--------------|-------5r-7-5-4-----------|
E|-7-777----------7-7-5-7--7-7-|-7-777----------7-7-5-7-*-|
 (00:27)                                                 /
G|(x2)---------------------------------------------------|
D|-------------------------------------------------------|
A|--------5-5----------7-7---------5r-7-5-4--------------|
E|-3--3-3-----3-5--5-5-----5-7-777----------7-7-5-7--7-7-|
 (00:37)                                                       /
G|(x3)---------------------------------------------------------|
D|-------------------------------------------------------------|
A|---------5-5-------------7-7-----------5r-7-5-4--------------|
E|-3-333-3-----3-3-5-555-5-----5-5-7-777----------7-7-5-7--7-7-|
 (00:52)
G|(x1)--------------------------------------------------------|
D|------------------------------------------------------------|
A|---------5-5-------------7-7-----------5r-7-5-4-------------|
E|-3-333-3-----3-3-5-555-5-----5-5-7-777----------7-7-5-7r--7-|
Follow quickly with Verse

(Verse) (00:57-00:58)

Pre-Verse 2 (01:07)
G|(x1)-------------------------|
D|-----------------------------|
A|-------5r-7-5-4--------------|
E|-7-777----------7-7-5-7--7-7-|
 (01:10)
G|(x4)---------------------------------------------------------|
D|-------------------------------------------------------------|
A|---------5-5-------------7-7-----------5r-7-5-4--------------|
E|-3-333-3-----3-3-5-555-5-----5-5-7-777----------7-7-5-7--7-7-|

Bridge (Bass solo) (01:30)
G|---------------------------------------
D|--------9-7---7h9p7--------------------
A|------9-----9--------------------------
E|-7-10---------------10-10-10-9-9-9-5-5-
 (01:33)
G|--------------------------------------
D|---9-7---7h9p7------------------------
A|-------9-------9-7--------------------
E|-7-----------------10-10-10-9-9-9-5-5-
 (01:36)
G|---------------------------------------
D|--------9-7---7h9p7--------------------
A|------9-----9--------------------------
E|-7-10---------------10-10-10-9-9-9-5-5-
 (01:38-01:39)
G|-----9-7---------------------------|
D|---9-----9-7-----------------------|
A|-------------9-7-------------------|
E|-7---------------10-10-10-9-9-9-5r-|

Outro (01:41)
G|(x1)---------------------------------------------------------|
D|-------------------------------------------------------------|
A|---------5-5-------------7-7-----------5r-7-5-4--------------|
E|-3-333-3-----3-3-5-555-5-----5-5-7-777----------7-7-5-7--7-7-|
 (01:46-01:47)
G|(x1)-----------------------------------------------------|
D|---------------------------------------------------------|
A|---------5-5-------------7-7-----------5r-7-5-4----------|
E|-3-333-3-----3-3-5-555-5-----5-5-7-777----------7-7-5-7\-|End

rancid_ska@hotmail.com
  development and support by
dmitry ivanov